  0
SECTION
  2
HEADER
  9
$ACADVER
  1
AC1014
  9
$ACADMAINTVER
 70
         0
  9
$DWGCODEPAGE
  3
DOS850
  9
$INSBASE
 10
0.0
 20
0.0
 30
0.0
  9
$EXTMIN
 10
-134.7603289951
 20
-374.1791258926
 30
0.0
  9
$EXTMAX
 10
188.4689810948
 20
-155.5390466783
 30
0.0
  9
$LIMMIN
 10
0.0
 20
0.0
  9
$LIMMAX
 10
0.0
 20
0.0
  9
$ORTHOMODE
 70
         0
  9
$REGENMODE
 70
         1
  9
$FILLMODE
 70
         1
  9
$QTEXTMODE
 70
         0
  9
$MIRRTEXT
 70
         1
  9
$DRAGMODE
 70
         2
  9
$LTSCALE
 40
1.0
  9
$OSMODE
 70
         0
  9
$ATTMODE
 70
         1
  9
$TEXTSIZE
 40
5.0
  9
$TRACEWID
 40
0.05
  9
$TEXTSTYLE
  7
STANDARD
  9
$CLAYER
  8
0
  9
$CELTYPE
  6
CONTINUOUS
  9
$CECOLOR
 62
         3
  9
$CELTSCALE
 40
1.0
  9
$DELOBJ
 70
         1
  9
$DISPSILH
 70
         0
  9
$DIMSCALE
 40
1.0
  9
$DIMASZ
 40
0.18
  9
$DIMEXO
 40
0.0625
  9
$DIMDLI
 40
0.38
  9
$DIMRND
 40
0.0
  9
$DIMDLE
 40
0.0
  9
$DIMEXE
 40
0.25
  9
$DIMTP
 40
0.01
  9
$DIMTM
 40
-0.01
  9
$DIMTXT
 40
5.0
  9
$DIMCEN
 40
0.09
  9
$DIMTSZ
 40
0.0
  9
$DIMTOL
 70
         0
  9
$DIMLIM
 70
         0
  9
$DIMTIH
 70
         1
  9
$DIMTOH
 70
         1
  9
$DIMSE1
 70
         0
  9
$DIMSE2
 70
         0
  9
$DIMTAD
 70
         0
  9
$DIMZIN
 70
         0
  9
$DIMBLK
  1

  9
$DIMASO
 70
         1
  9
$DIMSHO
 70
         1
  9
$DIMPOST
  1

  9
$DIMAPOST
  1

  9
$DIMALT
 70
         0
  9
$DIMALTD
 70
         2
  9
$DIMALTF
 40
25.4
  9
$DIMLFAC
 40
1.0
  9
$DIMTOFL
 70
         0
  9
$DIMTVP
 40
0.0
  9
$DIMTIX
 70
         0
  9
$DIMSOXD
 70
         0
  9
$DIMSAH
 70
         0
  9
$DIMBLK1
  1

  9
$DIMBLK2
  1

  9
$DIMSTYLE
  2
STANDARD
  9
$DIMCLRD
 70
         0
  9
$DIMCLRE
 70
         0
  9
$DIMCLRT
 70
         3
  9
$DIMTFAC
 40
1.0
  9
$DIMGAP
 40
0.09
  9
$DIMJUST
 70
         0
  9
$DIMSD1
 70
         0
  9
$DIMSD2
 70
         0
  9
$DIMTOLJ
 70
         1
  9
$DIMTZIN
 70
         0
  9
$DIMALTZ
 70
         0
  9
$DIMALTTZ
 70
         0
  9
$DIMFIT
 70
         3
  9
$DIMUPT
 70
         0
  9
$DIMUNIT
 70
         2
  9
$DIMDEC
 70
         4
  9
$DIMTDEC
 70
         4
  9
$DIMALTU
 70
         2
  9
$DIMALTTD
 70
         2
  9
$DIMTXSTY
  7
STANDARD
  9
$DIMAUNIT
 70
         0
  9
$LUNITS
 70
         2
  9
$LUPREC
 70
        10
  9
$SKETCHINC
 40
0.1
  9
$FILLETRAD
 40
0.0
  9
$AUNITS
 70
         0
  9
$AUPREC
 70
         0
  9
$MENU
  1
acad
  9
$ELEVATION
 40
0.0
  9
$PELEVATION
 40
0.0
  9
$THICKNESS
 40
0.0
  9
$LIMCHECK
 70
         0
  9
$BLIPMODE
 70
         1
  9
$CHAMFERA
 40
0.0
  9
$CHAMFERB
 40
0.0
  9
$CHAMFERC
 40
0.0
  9
$CHAMFERD
 40
0.0
  9
$SKPOLY
 70
         0
  9
$TDCREATE
 40
0.000000000
  9
$TDUPDATE
 40
0.000000000
  9
$TDINDWG
 40
0.0000000000
  9
$TDUSRTIMER
 40
0.0000000000
  9
$USRTIMER
 70
         1
  9
$ANGBASE
 50
0.0
  9
$ANGDIR
 70
         0
  9
$PDMODE
 70
         2
  9
$PDSIZE
 40
0.0
  9
$PLINEWID
 40
0.0
  9
$COORDS
 70
         0
  9
$SPLFRAME
 70
         0
  9
$SPLINETYPE
 70
         6
  9
$SPLINESEGS
 70
         8
  9
$ATTDIA
 70
         0
  9
$ATTREQ
 70
         1
  9
$HANDLING
 70
         1
  9
$HANDSEED
  5
8DD
  9
$SURFTAB1
 70
         6
  9
$SURFTAB2
 70
         6
  9
$SURFTYPE
 70
         6
  9
$SURFU
 70
         6
  9
$SURFV
 70
         6
  9
$UCSNAME
  2

  9
$UCSORG
 10
0.0
 20
0.0
 30
0.0
  9
$UCSXDIR
 10
1.0
 20
0.0
 30
0.0
  9
$UCSYDIR
 10
0.0
 20
1.0
 30
0.0
  9
$PUCSNAME
  2

  9
$PUCSORG
 10
0.0
 20
0.0
 30
0.0
  9
$PUCSXDIR
 10
1.0
 20
0.0
 30
0.0
  9
$PUCSYDIR
 10
0.0
 20
1.0
 30
0.0
  9
$USERI1
 70
         0
  9
$USERI2
 70
         0
  9
$USERI3
 70
         0
  9
$USERI4
 70
         0
  9
$USERI5
 70
         0
  9
$USERR1
 40
0.0
  9
$USERR2
 40
0.0
  9
$USERR3
 40
0.0
  9
$USERR4
 40
0.0
  9
$USERR5
 40
0.0
  9
$WORLDVIEW
 70
         1
  9
$SHADEDGE
 70
         3
  9
$SHADEDIF
 70
        70
  9
$TILEMODE
 70
         1
  9
$MAXACTVP
 70
        16
  9
$PINSBASE
 10
0.0
 20
0.0
 30
0.0
  9
$PLIMCHECK
 70
         0
  9
$PEXTMIN
 10
1.0000000000E+20
 20
1.0000000000E+20
 30
1.0000000000E+20
  9
$PEXTMAX
 10
-1.0000000000E+20
 20
-1.0000000000E+20
 30
-1.0000000000E+20
  9
$PLIMMIN
 10
0.0
 20
0.0
  9
$PLIMMAX
 10
12.0
 20
9.0
  9
$UNITMODE
 70
         0
  9
$VISRETAIN
 70
         0
  9
$PLINEGEN
 70
         1
  9
$PSLTSCALE
 70
         0
  9
$TREEDEPTH
 70
      3020
  9
$PICKSTYLE
 70
         1
  9
$CMLSTYLE
  2
STANDARD
  9
$CMLJUST
 70
         0
  9
$CMLSCALE
 40
1.0
  9
$PROXYGRAPHICS
 70
         0
  9
$MEASUREMENT
 70
         0
  0
ENDSEC
  0
SECTION
  2
CLASSES
  0
CLASS
  1
LWPOLYLINE
  2
AcDbPolyline
  3
"AutoCAD"
 90
        0
280
         0
281
         1
  0
CLASS
  1
IMAGE
  2
AcDbRasterImage
  3
ISM
 90
      127
280
         0
281
         1
  0
CLASS
  1
OLE2FRAME
  2
AcDbOle2Frame
  3
""
 90
        0
280
         0
281
         1
  0
CLASS
  1
HATCH
  2
AcDbHatch
  3
"ACAD_SEDONA"
 90
        0
280
         0
281
         1
  0
CLASS
  1
DICTIONARYVAR
  2
AcDbDictionaryVar
  3
"AutoCAD"
 90
        0
280
         0
281
         0
  0
CLASS
  1
RASTERVARIABLES
  2
AcDbRasterVariables
  3
ISM
 90
        0
280
         0
281
         0
  0
CLASS
  1
IMAGEDEF
  2
AcDbRasterImageDef
  3
ISM
 90
        0
280
         0
281
         0
  0
CLASS
  1
IMAGEDEF_REACTOR
  2
AcDbRasterImageDefReactor
  3
ISM
 90
        1
280
         0
281
         0
  0
CLASS
  1
IDBUFFER
  2
AcDbIdBuffer
  3
"Acad"
 90
        0
280
         0
281
         0
  0
CLASS
  1
SPATIAL_FILTER
  2
AcDbSpatialFilter
  3
"Acad"
 90
        0
280
         0
281
         0
  0
CLASS
  1
XRECORD
  2
AcDbXrecord
  3
"<Built In>"
 90
        0
280
         0
281
         0
  0
CLASS
  1
SORTENTSTABLE
  2
AcDbSortentsTable
  3
"AutoCAD"
 90
        0
280
         0
281
         0
  0
CLASS
  1
LAYER_INDEX
  2
AcDbLayerIndex
  3
"Acad"
 90
        0
280
         0
281
         0
  0
CLASS
  1
SPATIAL_INDEX
  2
AcDbSpatialIndex
  3
"Acad"
 90
        0
280
         0
281
         0
  0
CLASS
  1
OBJECT_PTR
  2
CAseDLPNTableRecord
  3
"ASE-LPNTableRecord"
 90
        1
280
         0
281
         0
  0
CLASS
  1
LAYOUT
  2
AcDbLayout
  3
"AutoCAD 2000"
 90
        1
280
         0
281
         0
  0
CLASS
  1
PLOTSETTINGS
  2
AcDbPlotSettings
  3
"AutoCAD 2000"
 90
        1
280
         0
281
         0
  0
CLASS
  1
ACDBDICTIONARYWDFLT
  2
AcDbDictionaryWithDefault
  3
"AutoCAD 2000"
 90
        1
280
         0
281
         0
  0
CLASS
  1
ACDBPLACEHOLDER
  2
AcDbPlaceHolder
  3
"AutoCAD 2000"
 90
        1
280
         0
281
         0
  0
CLASS
  1
VBA_PROJECT
  2
AcDbVbaProject
  3
"acadvba"
 90
        1
280
         0
281
         0
  0
CLASS
  1
WIPEOUT
  2
AcDbWipeout
  3
WipeOut|AutoCAD Express Tool|expresstools@autodesk.com
 90
      127
280
         0
281
         1
  0
CLASS
  1
WIPEOUTVARIABLES
  2
AcDbWipeoutVariables
  3
WipeOut|AutoCAD Express Tool|expresstools@autodesk.com
 90
        0
280
         0
281
         0
  0
CLASS
  1
RTEXT
  2
RText
  3
RText|AutoCAD Express Tool|expresstools@autodesk.com
 90
        0
280
         0
281
         1
  0
CLASS
  1
ARCALIGNEDTEXT
  2
AcDbArcAlignedText
  3
ATEXT|AutoCAD Express Tool|expresstools@autodesk.com
 90
        0
280
         0
281
         1
  0
ENDSEC
  0
SECTION
  2
TABLES
  0
TABLE
  2
VPORT
  5
7
100
AcDbSymbolTable
 70
         1
  0
VPORT
  5
15
100
AcDbSymbolTableRecord
100
AcDbViewportTableRecord
  2
*ACTIVE
 70
         0
 10
0.0
 20
0.0
 11
1.0
 21
1.0
 12
26.8543260498
 22
-264.8590862855
 13
0.0
 23
0.0
 14
1.0
 24
1.0
 15
0.0
 25
0.0
 16
0.0
 26
0.0
 36
1.0
 17
0.0
 27
0.0
 37
0.0
 40
218.6400792143
 41
1.4783625731
 42
50.0
 43
0.0
 44
0.0
 50
0.0
 51
0.0
 71
         0
 72
       100
 73
         1
 74
         1
 75
         0
 76
         0
 77
         0
 78
         0
  0
ENDTAB
  0
TABLE
  2
LTYPE
  5
4
100
AcDbSymbolTable
 70
         6
  0
LTYPE
  5
11
100
AcDbSymbolTableRecord
100
AcDbLinetypeTableRecord
  2
BYBLOCK
 70
        64
  3

 72
        65
 73
         0
 40
0.0
  0
LTYPE
  5
12
100
AcDbSymbolTableRecord
100
AcDbLinetypeTableRecord
  2
BYLAYER
 70
        64
  3

 72
        65
 73
         0
 40
0.0
  0
LTYPE
  5
13
100
AcDbSymbolTableRecord
100
AcDbLinetypeTableRecord
  2
CONTINUOUS
 70
        64
  3
Solid line
 72
        65
 73
         0
 40
0.0
  0
LTYPE
  5
1D
100
AcDbSymbolTableRecord
100
AcDbLinetypeTableRecord
  2
DASHED
 70
        64
  3
_ _ _ _ _ _ _ _ _ _ _ _ _ _ _ _
 72
        65
 73
         2
 40
0.2
 49
0.1
 74
         0
 49
-0.1
 74
         0
  0
LTYPE
  5
1E
100
AcDbSymbolTableRecord
100
AcDbLinetypeTableRecord
  2
CENTER
 70
        64
  3
___ _ ___ _ ___ _ ___ _ ___ _ ___ _ ___ _ ___ _
 72
        65
 73
         4
 40
0.95
 49
0.625
 74
         0
 49
-0.125
 74
         0
 49
0.075
 74
         0
 49
-0.125
 74
         0
  0
LTYPE
  5
1F
100
AcDbSymbolTableRecord
100
AcDbLinetypeTableRecord
  2
PHANTOM
 70
        64
  3
______  __  __  ______  __  __  ______  __  __  
 72
        65
 73
         6
 40
1.025
 49
0.625
 74
         0
 49
-0.125
 74
         0
 49
0.075
 74
         0
 49
-0.125
 74
         0
 49
0.075
 74
         0
 49
-0.125
 74
         0
  0
ENDTAB
  0
TABLE
  2
LAYER
  5
2
100
AcDbSymbolTable
 70
         2
  0
LAYER
  5
14
100
AcDbSymbolTableRecord
100
AcDbLayerTableRecord
  2
0
 70
         0
 62
         7
  6
CONTINUOUS
  0
LAYER
  5
21
100
AcDbSymbolTableRecord
100
AcDbLayerTableRecord
  2
CK_LEVEL_1
 70
         0
 62
         7
  6
CONTINUOUS
  0
ENDTAB
  0
TABLE
  2
STYLE
  5
3
100
AcDbSymbolTable
 70
         1
  0
STYLE
  5
17
100
AcDbSymbolTableRecord
100
AcDbTextStyleTableRecord
  2
STANDARD
 70
         0
 40
0.0
 41
1.0
 50
0.0
 71
         0
 42
0.0
  3
txt
  4

  0
ENDTAB
  0
TABLE
  2
VIEW
  5
5
100
AcDbSymbolTable
 70
         0
  0
ENDTAB
  0
TABLE
  2
UCS
  5
6
100
AcDbSymbolTable
 70
         1
  0
UCS
  5
20
100
AcDbSymbolTableRecord
100
AcDbUCSTableRecord
  2
CK_VIEW_1
 70
         0
 10
0.0
 20
0.0
 30
1.0
 11
1.0
 21
0.0
 31
0.0
 12
0.0
 22
1.0
 32
0.0
  0
ENDTAB
  0
TABLE
  2
APPID
  5
8
100
AcDbSymbolTable
 70
         1
  0
APPID
  5
16
100
AcDbSymbolTableRecord
100
AcDbRegAppTableRecord
  2
ACAD
 70
         0
  0
ENDTAB
  0
TABLE
  2
DIMSTYLE
  5
9
100
AcDbSymbolTable
 70
         1
  0
DIMSTYLE
105
18
100
AcDbSymbolTableRecord
100
AcDbDimStyleTableRecord
  2
STANDARD
 70
         0
  3

  4

  5

  6

  7

 40
1.0
 41
0.18
 42
0.0625
 43
0.38
 44
0.18
 45
0.0
 46
0.0
 47
0.0
 48
0.0
 71
         0
 72
         0
 73
         1
 74
         1
 75
         0
 76
         0
 77
         0
 78
         0
140
0.18
141
0.09
142
0.0
143
25.4
144
1.0
145
0.0
146
1.0
147
0.09
170
         0
171
         2
172
         0
173
         0
174
         0
175
         0
176
         0
177
         0
178
         0
270
         2
271
         4
272
         4
273
         2
274
         2
275
         0
280
         0
281
         0
282
         0
283
         1
284
         0
285
         0
286
         0
287
         0
288
         0
340
17
  0
ENDTAB
  0
TABLE
  2
BLOCK_RECORD
  5
1
100
AcDbSymbolTable
 70
         4
  0
BLOCK_RECORD
  5
A
100
AcDbSymbolTableRecord
100
AcDbBlockTableRecord
  2
*MODEL_SPACE
  0
BLOCK_RECORD
  5
B
100
AcDbSymbolTableRecord
100
AcDbBlockTableRecord
  2
*PAPER_SPACE
  0
BLOCK_RECORD
  5
22
100
AcDbSymbolTableRecord
100
AcDbBlockTableRecord
  2
CKCOLL2295
  0
BLOCK_RECORD
  5
6D
100
AcDbSymbolTableRecord
100
AcDbBlockTableRecord
  2
CKCOLL2287
  0
BLOCK_RECORD
  5
547
100
AcDbSymbolTableRecord
100
AcDbBlockTableRecord
  2
CKCOLL2326
  0
BLOCK_RECORD
  5
58E
100
AcDbSymbolTableRecord
100
AcDbBlockTableRecord
  2
CKCOLL2330
  0
ENDTAB
  0
ENDSEC
  0
SECTION
  2
BLOCKS
  0
BLOCK
  5
D
100
AcDbEntity
  8
0
100
AcDbBlockBegin
  2
*MODEL_SPACE
 70
         0
 10
0.0
 20
0.0
 30
0.0
  3
*MODEL_SPACE
  1

  0
ENDBLK
  5
E
100
AcDbEntity
  8
0
100
AcDbBlockEnd
  0
BLOCK
  5
F
100
AcDbEntity
 67
         1
  8
0
100
AcDbBlockBegin
  2
*PAPER_SPACE
 70
         0
 10
0.0
 20
0.0
 30
0.0
  3
*PAPER_SPACE
  1

  0
ENDBLK
  5
10
100
AcDbEntity
 67
         1
  8
0
100
AcDbBlockEnd
  0
BLOCK
  5
23
100
AcDbEntity
  8
0
100
AcDbBlockBegin
  2
CKCOLL2295
 70
        64
 10
0.0
 20
0.0
 30
0.0
  3
CKCOLL2295
  1

  0
CIRCLE
  5
24
100
AcDbEntity
  8
CK_LEVEL_1
  6
CONTINUOUS
 62
         5
100
AcDbCircle
 10
25.0
 20
-176.2016262
 30
-109.6281845333
 40
15.3
210
-1.0
220
0.0
230
0.0
  0
CIRCLE
  5
25
100
AcDbEntity
  8
CK_LEVEL_1
  6
CONTINUOUS
 62
         5
100
AcDbCircle
 10
25.0
 20
-176.2016262
 30
-102.9406200488
 40
15.3
210
-1.0
220
0.0
230
0.0
  0
CIRCLE
  5
26
100
AcDbEntity
  8
CK_LEVEL_1
  6
CONTINUOUS
 62
         5
100
AcDbCircle
 10
25.0
 20
-176.2016262
 30
-101.9406200488
 40
16.3
210
-1.0
220
0.0
230
0.0
  0
CIRCLE
  5
27
100
AcDbEntity
  8
CK_LEVEL_1
  6
CONTINUOUS
 62
         5
100
AcDbCircle
 10
25.0
 20
-176.2016262
 30
-101.9406200488
 40
28.75
210
-1.0
220
0.0
230
0.0
  0
LINE
  5
28
100
AcDbEntity
  8
CK_LEVEL_1
  6
CONTINUOUS
 62
         5
100
AcDbLine
 10
100.9406200488
 20
-54.75
 30
-176.2016262
 11
98.4406200488
 21
-54.75
 31
-176.2016262
  0
LINE
  5
29
100
AcDbEntity
  8
CK_LEVEL_1
  6
CONTINUOUS
 62
         5
100
AcDbLine
 10
100.9406200488
 20
-25.0
 30
-146.4516262
 11
98.4406200488
 21
-25.0
 31
-146.4516262
  0
LINE
  5
2A
100
AcDbEntity
  8
CK_LEVEL_1
  6
CONTINUOUS
 62
         5
100
AcDbLine
 10
100.9406200488
 20
4.75
 30
-176.2016262
 11
98.4406200488
 21
4.75
 31
-176.2016262
  0
LINE
  5
2B
100
AcDbEntity
  8
CK_LEVEL_1
  6
CONTINUOUS
 62
         5
100
AcDbLine
 10
100.9406200488
 20
-25.0
 30
-205.9516262
 11
98.4406200488
 21
-25.0
 31
-205.9516262
  0
LINE
  5
2C
100
AcDbEntity
  8
CK_LEVEL_1
  6
CONTINUOUS
 62
         5
100
AcDbLine
 10
99.6406200488
 20
-45.0
 30
-176.2016262
 11
98.4406200488
 21
-45.0
 31
-176.2016262
  0
LINE
  5
2D
100
AcDbEntity
  8
CK_LEVEL_1
  6
CONTINUOUS
 62
         5
100
AcDbLine
 10
99.6406200488
 20
-25.0
 30
-156.2016262
 11
98.4406200488
 21
-25.0
 31
-156.2016262
  0
LINE
  5
2E
100
AcDbEntity
  8
CK_LEVEL_1
  6
CONTINUOUS
 62
         5
100
AcDbLine
 10
99.6406200488
 20
-5.0
 30
-176.2016262
 11
98.4406200488
 21
-5.0
 31
-176.2016262
  0
LINE
  5
2F
100
AcDbEntity
  8
CK_LEVEL_1
  6
CONTINUOUS
 62
         5
100
AcDbLine
 10
99.6406200488
 20
-25.0
 30
-196.2016262
 11
98.4406200488
 21
-25.0
 31
-196.2016262
  0
LINE
  5
30
100
AcDbEntity
  8
CK_LEVEL_1
  6
CONTINUOUS
 62
         5
100
AcDbLine
 10
99.6406200488
 20
-41.5
 30
-176.2016262
 11
98.4406200488
 21
-41.5
 31
-176.2016262
  0
LINE
  5
31
100
AcDbEntity
  8
CK_LEVEL_1
  6
CONTINUOUS
 62
         5
100
AcDbLine
 10
99.6406200488
 20
-25.0
 30
-159.7016262
 11
98.4406200488
 21
-25.0
 31
-159.7016262
  0
LINE
  5
32
100
AcDbEntity
  8
CK_LEVEL_1
  6
CONTINUOUS
 62
         5
100
AcDbLine
 10
99.6406200488
 20
-8.5
 30
-176.2016262
 11
98.4406200488
 21
-8.5
 31
-176.2016262
  0
LINE
  5
33
100
AcDbEntity
  8
CK_LEVEL_1
  6
CONTINUOUS
 62
         5
100
AcDbLine
 10
99.6406200488
 20
-25.0
 30
-192.7016262
 11
98.4406200488
 21
-25.0
 31
-192.7016262
  0
LINE
  5
34
100
AcDbEntity
  8
CK_LEVEL_1
  6
CONTINUOUS
 62
         5
100
AcDbLine
 10
98.9406200488
 20
-35.3
 30
-176.2016262
 11
98.4406200488
 21
-35.8
 31
-176.2016262
  0
LINE
  5
35
100
AcDbEntity
  8
CK_LEVEL_1
  6
CONTINUOUS
 62
         5
100
AcDbLine
 10
98.9406200488
 20
-25.0
 30
-165.9016262
 11
98.4406200488
 21
-25.0
 31
-165.4016262
  0
LINE
  5
36
100
AcDbEntity
  8
CK_LEVEL_1
  6
CONTINUOUS
 62
         5
100
AcDbLine
 10
98.9406200488
 20
-14.7
 30
-176.2016262
 11
98.4406200488
 21
-14.2
 31
-176.2016262
  0
LINE
  5
37
100
AcDbEntity
  8
CK_LEVEL_1
  6
CONTINUOUS
 62
         5
100
AcDbLine
 10
98.9406200488
 20
-25.0
 30
-186.5016262
 11
98.4406200488
 21
-25.0
 31
-187.0016262
  0
LINE
  5
38
100
AcDbEntity
  8
CK_LEVEL_1
  6
CONTINUOUS
 62
         5
100
AcDbLine
 10
103.4406200488
 20
-35.3
 30
-176.2016262
 11
98.9406200488
 21
-35.3
 31
-176.2016262
  0
LINE
  5
39
100
AcDbEntity
  8
CK_LEVEL_1
  6
CONTINUOUS
 62
         5
100
AcDbLine
 10
103.4406200488
 20
-25.0
 30
-165.9016262
 11
98.9406200488
 21
-25.0
 31
-165.9016262
  0
LINE
  5
3A
100
AcDbEntity
  8
CK_LEVEL_1
  6
CONTINUOUS
 62
         5
100
AcDbLine
 10
103.4406200488
 20
-14.7
 30
-176.2016262
 11
98.9406200488
 21
-14.7
 31
-176.2016262
  0
LINE
  5
3B
100
AcDbEntity
  8
CK_LEVEL_1
  6
CONTINUOUS
 62
         5
100
AcDbLine
 10
103.4406200488
 20
-25.0
 30
-186.5016262
 11
98.9406200488
 21
-25.0
 31
-186.5016262
  0
LINE
  5
3C
100
AcDbEntity
  8
CK_LEVEL_1
  6
CONTINUOUS
 62
         5
100
AcDbLine
 10
104.9406200488
 20
-36.25
 30
-176.2016262
 11
103.4406200488
 21
-36.25
 31
-176.2016262
  0
LINE
  5
3D
100
AcDbEntity
  8
CK_LEVEL_1
  6
CONTINUOUS
 62
         5
100
AcDbLine
 10
104.9406200488
 20
-25.0
 30
-164.9516262
 11
103.4406200488
 21
-25.0
 31
-164.9516262
  0
LINE
  5
3E
100
AcDbEntity
  8
CK_LEVEL_1
  6
CONTINUOUS
 62
         5
100
AcDbLine
 10
104.9406200488
 20
-13.75
 30
-176.2016262
 11
103.4406200488
 21
-13.75
 31
-176.2016262
  0
LINE
  5
3F
100
AcDbEntity
  8
CK_LEVEL_1
  6
CONTINUOUS
 62
         5
100
AcDbLine
 10
104.9406200488
 20
-25.0
 30
-187.4516262
 11
103.4406200488
 21
-25.0
 31
-187.4516262
  0
LINE
  5
40
100
AcDbEntity
  8
CK_LEVEL_1
  6
CONTINUOUS
 62
         5
100
AcDbLine
 10
106.7406200488
 20
-34.6
 30
-176.2016262
 11
104.9406200488
 21
-34.6
 31
-176.2016262
  0
LINE
  5
41
100
AcDbEntity
  8
CK_LEVEL_1
  6
CONTINUOUS
 62
         5
100
AcDbLine
 10
106.7406200488
 20
-25.0
 30
-166.6016262
 11
104.9406200488
 21
-25.0
 31
-166.6016262
  0
LINE
  5
42
100
AcDbEntity
  8
CK_LEVEL_1
  6
CONTINUOUS
 62
         5
100
AcDbLine
 10
106.7406200488
 20
-15.4
 30
-176.2016262
 11
104.9406200488
 21
-15.4
 31
-176.2016262
  0
LINE
  5
43
100
AcDbEntity
  8
CK_LEVEL_1
  6
CONTINUOUS
 62
         5
100
AcDbLine
 10
106.7406200488
 20
-25.0
 30
-185.8016262
 11
104.9406200488
 21
-25.0
 31
-185.8016262
  0
LINE
  5
44
100
AcDbEntity
  8
CK_LEVEL_1
  6
CONTINUOUS
 62
         5
100
AcDbLine
 10
112.2406200986
 20
-38.0
 30
-176.2016262
 11
106.7406200488
 21
-38.0
 31
-176.2016262
  0
LINE
  5
45
100
AcDbEntity
  8
CK_LEVEL_1
  6
CONTINUOUS
 62
         5
100
AcDbLine
 10
112.2406200986
 20
-25.0
 30
-163.2016262
 11
106.7406200488
 21
-25.0
 31
-163.2016262
  0
LINE
  5
46
100
AcDbEntity
  8
CK_LEVEL_1
  6
CONTINUOUS
 62
         5
100
AcDbLine
 10
112.2406200986
 20
-12.0
 30
-176.2016262
 11
106.7406200488
 21
-12.0
 31
-176.2016262
  0
LINE
  5
47
100
AcDbEntity
  8
CK_LEVEL_1
  6
CONTINUOUS
 62
         5
100
AcDbLine
 10
112.2406200986
 20
-25.0
 30
-189.2016262
 11
106.7406200488
 21
-25.0
 31
-189.2016262
  0
LINE
  5
48
100
AcDbEntity
  8
CK_LEVEL_1
  6
CONTINUOUS
 62
         5
100
AcDbLine
 10
112.2406200986
 20
-39.6
 30
-176.2016262
 11
109.6281845333
 21
-40.3
 31
-176.2016262
  0
LINE
  5
49
100
AcDbEntity
  8
CK_LEVEL_1
  6
CONTINUOUS
 62
         5
100
AcDbLine
 10
112.2406200986
 20
-25.0
 30
-161.6016262
 11
109.6281845333
 21
-25.0
 31
-160.9016262
  0
LINE
  5
4A
100
AcDbEntity
  8
CK_LEVEL_1
  6
CONTINUOUS
 62
         5
100
AcDbLine
 10
112.2406200986
 20
-10.4
 30
-176.2016262
 11
109.6281845333
 21
-9.7
 31
-176.2016262
  0
LINE
  5
4B
100
AcDbEntity
  8
CK_LEVEL_1
  6
CONTINUOUS
 62
         5
100
AcDbLine
 10
112.2406200986
 20
-25.0
 30
-190.8016262
 11
109.6281845333
 21
-25.0
 31
-191.5016262
  0
LINE
  5
4C
100
AcDbEntity
  8
CK_LEVEL_1
  6
CONTINUOUS
 62
         5
100
AcDbLine
 10
109.6281845333
 20
-40.3
 30
-176.2016262
 11
102.9406200488
 21
-40.3
 31
-176.2016262
  0
LINE
  5
4D
100
AcDbEntity
  8
CK_LEVEL_1
  6
CONTINUOUS
 62
         5
100
AcDbLine
 10
109.6281845333
 20
-25.0
 30
-160.9016262
 11
102.9406200488
 21
-25.0
 31
-160.9016262
  0
LINE
  5
4E
100
AcDbEntity
  8
CK_LEVEL_1
  6
CONTINUOUS
 62
         5
100
AcDbLine
 10
109.6281845333
 20
-9.7
 30
-176.2016262
 11
102.9406200488
 21
-9.7
 31
-176.2016262
  0
LINE
  5
4F
100
AcDbEntity
  8
CK_LEVEL_1
  6
CONTINUOUS
 62
         5
100
AcDbLine
 10
109.6281845333
 20
-25.0
 30
-191.5016262
 11
102.9406200488
 21
-25.0
 31
-191.5016262
  0
ARC
  5
50
100
AcDbEntity
  8
CK_LEVEL_1
  6
CONTINUOUS
 62
         5
100
AcDbCircle
 10
-102.9406200488
 20
-41.3
 30
176.2016262
 40
1.0
210
0.0
220
0.0
230
-1.0
100
AcDbArc
 50
0.0
 51
90.0
  0
ARC
  5
51
100
AcDbEntity
  8
CK_LEVEL_1
  6
CONTINUOUS
 62
         5
100
AcDbCircle
 10
102.9406200488
 20
-159.9016262
 30
25.0
 40
1.0
210
0.0
220
-1.0
230
0.0
100
AcDbArc
 50
180.0
 51
270.0
  0
ARC
  5
52
100
AcDbEntity
  8
CK_LEVEL_1
  6
CONTINUOUS
 62
         5
100
AcDbCircle
 10
102.9406200488
 20
-8.7
 30
-176.2016262
 40
1.0
100
AcDbArc
 50
180.0
 51
270.0
  0
ARC
  5
53
100
AcDbEntity
  8
CK_LEVEL_1
  6
CONTINUOUS
 62
         5
100
AcDbCircle
 10
-102.9406200488
 20
-192.5016262
 30
-25.0
 40
1.0
210
0.0
220
1.0
230
0.0
100
AcDbArc
 50
0.0
 51
90.0
  0
CIRCLE
  5
54
100
AcDbEntity
  8
CK_LEVEL_1
  6
CONTINUOUS
 62
         5
100
AcDbCircle
 10
25.0
 20
-176.2016262
 30
-102.2335132676
 40
15.5928932188
210
-1.0
220
0.0
230
0.0
  0
ARC
  5
55
100
AcDbEntity
  8
CK_LEVEL_1
  6
CONTINUOUS
 62
         5
100
AcDbCircle
 10
-100.9406200488
 20
-53.75
 30
176.2016262
 40
1.0
210
0.0
220
0.0
230
-1.0
100
AcDbArc
 50
180.0
 51
270.0
  0
ARC
  5
56
100
AcDbEntity
  8
CK_LEVEL_1
  6
CONTINUOUS
 62
         5
100
AcDbCircle
 10
100.9406200488
 20
-147.4516262
 30
25.0
 40
1.0
210
0.0
220
-1.0
230
0.0
100
AcDbArc
 50
0.0
 51
90.0
  0
ARC
  5
57
100
AcDbEntity
  8
CK_LEVEL_1
  6
CONTINUOUS
 62
         5
100
AcDbCircle
 10
100.9406200488
 20
3.75
 30
-176.2016262
 40
1.0
100
AcDbArc
 50
0.0
 51
90.0
  0
ARC
  5
58
100
AcDbEntity
  8
CK_LEVEL_1
  6
CONTINUOUS
 62
         5
100
AcDbCircle
 10
-100.9406200488
 20
-204.9516262
 30
-25.0
 40
1.0
210
0.0
220
1.0
230
0.0
100
AcDbArc
 50
180.0
 51
270.0
  0
CIRCLE
  5
59
100
AcDbEntity
  8
CK_LEVEL_1
  6
CONTINUOUS
 62
         5
100
AcDbCircle
 10
25.0
 20
-176.2016262
 30
-101.64772683
 40
29.4571067812
210
-1.0
220
0.0
230
0.0
  0
CIRCLE
  5
5A
100
AcDbEntity
  8
CK_LEVEL_1
  6
CONTINUOUS
 62
         5
100
AcDbCircle
 10
25.0
 20
-176.2016262
 30
-98.4406200488
 40
29.75
210
-1.0
220
0.0
230
0.0
  0
CIRCLE
  5
5B
100
AcDbEntity
  8
CK_LEVEL_1
  6
CONTINUOUS
 62
         5
100
AcDbCircle
 10
25.0
 20
-176.2016262
 30
-100.9406200488
 40
29.75
210
-1.0
220
0.0
230
0.0
  0
CIRCLE
  5
5C
100
AcDbEntity
  8
CK_LEVEL_1
  6
CONTINUOUS
 62
         5
100
AcDbCircle
 10
25.0
 20
-176.2016262
 30
-98.4406200488
 40
20.0
210
-1.0
220
0.0
230
0.0
  0
CIRCLE
  5
5D
100
AcDbEntity
  8
CK_LEVEL_1
  6
CONTINUOUS
 62
         5
100
AcDbCircle
 10
25.0
 20
-176.2016262
 30
-99.6406200488
 40
20.0
210
-1.0
220
0.0
230
0.0
  0
CIRCLE
  5
5E
100
AcDbEntity
  8
CK_LEVEL_1
  6
CONTINUOUS
 62
         5
100
AcDbCircle
 10
25.0
 20
-176.2016262
 30
-99.6406200488
 40
16.5
210
-1.0
220
0.0
230
0.0
  0
CIRCLE
  5
5F
100
AcDbEntity
  8
CK_LEVEL_1
  6
CONTINUOUS
 62
         5
100
AcDbCircle
 10
25.0
 20
-176.2016262
 30
-98.4406200488
 40
16.5
210
-1.0
220
0.0
230
0.0
  0
CIRCLE
  5
60
100
AcDbEntity
  8
CK_LEVEL_1
  6
CONTINUOUS
 62
         5
100
AcDbCircle
 10
25.0
 20
-176.2016262
 30
-98.4406200488
 40
10.8
210
-1.0
220
0.0
230
0.0
  0
CIRCLE
  5
61
100
AcDbEntity
  8
CK_LEVEL_1
  6
CONTINUOUS
 62
         5
100
AcDbCircle
 10
25.0
 20
-176.2016262
 30
-98.9406200488
 40
10.3
210
-1.0
220
0.0
230
0.0
  0
CIRCLE
  5
62
100
AcDbEntity
  8
CK_LEVEL_1
  6
CONTINUOUS
 62
         5
100
AcDbCircle
 10
25.0
 20
-176.2016262
 30
-103.4406200488
 40
10.3
210
-1.0
220
0.0
230
0.0
  0
CIRCLE
  5
63
100
AcDbEntity
  8
CK_LEVEL_1
  6
CONTINUOUS
 62
         5
100
AcDbCircle
 10
25.0
 20
-176.2016262
 30
-103.4406200488
 40
11.25
210
-1.0
220
0.0
230
0.0
  0
CIRCLE
  5
64
100
AcDbEntity
  8
CK_LEVEL_1
  6
CONTINUOUS
 62
         5
100
AcDbCircle
 10
25.0
 20
-176.2016262
 30
-104.9406200488
 40
11.25
210
-1.0
220
0.0
230
0.0
  0
CIRCLE
  5
65
100
AcDbEntity
  8
CK_LEVEL_1
  6
CONTINUOUS
 62
         5
100
AcDbCircle
 10
25.0
 20
-176.2016262
 30
-104.9406200488
 40
9.6
210
-1.0
220
0.0
230
0.0
  0
CIRCLE
  5
66
100
AcDbEntity
  8
CK_LEVEL_1
  6
CONTINUOUS
 62
         5
100
AcDbCircle
 10
25.0
 20
-176.2016262
 30
-106.7406200488
 40
9.6
210
-1.0
220
0.0
230
0.0
  0
CIRCLE
  5
67
100
AcDbEntity
  8
CK_LEVEL_1
  6
CONTINUOUS
 62
         5
100
AcDbCircle
 10
25.0
 20
-176.2016262
 30
-106.7406200488
 40
13.0
210
-1.0
220
0.0
230
0.0
  0
CIRCLE
  5
68
100
AcDbEntity
  8
CK_LEVEL_1
  6
CONTINUOUS
 62
         5
100
AcDbCircle
 10
25.0
 20
-176.2016262
 30
-112.2406200986
 40
13.0
210
-1.0
220
0.0
230
0.0
  0
CIRCLE
  5
69
100
AcDbEntity
  8
CK_LEVEL_1
  6
CONTINUOUS
 62
         5
100
AcDbCircle
 10
25.0
 20
-176.2016262
 30
-112.2406200986
 40
14.6
210
-1.0
220
0.0
230
0.0
  0
ENDBLK
  5
6A
100
AcDbEntity
  8
0
  6
CONTINUOUS
100
AcDbBlockEnd
  0
BLOCK
  5
6E
100
AcDbEntity
  8
0
100
AcDbBlockBegin
  2
CKCOLL2287
 70
        64
 10
0.0
 20
0.0
 30
0.0
  3
CKCOLL2287
  1

  0
CIRCLE
  5
6F
100
AcDbEntity
  8
CK_LEVEL_1
  6
CONTINUOUS
 62
         5
100
AcDbCircle
 10
25.0
 20
-176.2016262
 30
-162.4406200986
 40
3.4
210
-1.0
220
0.0
230
0.0
  0
CIRCLE
  5
70
100
AcDbEntity
  8
CK_LEVEL_1
  6
CONTINUOUS
 62
         5
100
AcDbCircle
 10
25.0
 20
-176.2016262
 30
-165.9406200986
 40
16.2
210
-1.0
220
0.0
230
0.0
  0
CIRCLE
  5
71
100
AcDbEntity
  8
CK_LEVEL_1
  6
CONTINUOUS
 62
         5
100
AcDbCircle
 10
25.0
 20
-176.2016262
 30
-165.6406200986
 40
16.5
210
-1.0
220
0.0
230
0.0
  0
LINE
  5
72
100
AcDbEntity
  8
CK_LEVEL_1
  6
CONTINUOUS
 62
         5
100
AcDbLine
 10
138.4406200986
 20
-22.75
 30
-190.5259935507
 11
138.4406200986
 21
-22.75
 31
-192.5474972382
  0
LINE
  5
73
100
AcDbEntity
  8
CK_LEVEL_1
  6
CONTINUOUS
 62
         5
100
AcDbLine
 10
140.6906200986
 20
-25.0
 30
-190.7016261999
 11
140.6906200986
 21
-25.0
 31
-192.7016261999
  0
LINE
  5
74
100
AcDbEntity
  8
CK_LEVEL_1
  6
CONTINUOUS
 62
         5
100
AcDbLine
 10
138.4406200986
 20
-27.25
 30
-190.5259935507
 11
138.4406200986
 21
-27.25
 31
-192.5474972382
  0
LINE
  5
75
100
AcDbEntity
  8
CK_LEVEL_1
  6
CONTINUOUS
 62
         5
100
AcDbLine
 10
136.1906200986
 20
-25.0
 30
-190.7016261999
 11
136.1906200986
 21
-25.0
 31
-192.7016261999
  0
LINE
  5
76
100
AcDbEntity
  8
CK_LEVEL_1
  6
CONTINUOUS
 62
         5
100
AcDbLine
 10
115.6056836081
 20
-39.5
 30
-176.2016262
 11
110.9406200986
 21
-40.75
 31
-176.2016262
  0
LINE
  5
77
100
AcDbEntity
  8
CK_LEVEL_1
  6
CONTINUOUS
 62
         5
100
AcDbLine
 10
115.6056836081
 20
-25.0
 30
-161.7016262
 11
110.9406200986
 21
-25.0
 31
-160.4516262
  0
LINE
  5
78
100
AcDbEntity
  8
CK_LEVEL_1
  6
CONTINUOUS
 62
         5
100
AcDbLine
 10
115.6056836081
 20
-10.5
 30
-176.2016262
 11
110.9406200986
 21
-9.25
 31
-176.2016262
  0
LINE
  5
79
100
AcDbEntity
  8
CK_LEVEL_1
  6
CONTINUOUS
 62
         5
100
AcDbLine
 10
115.6056836081
 20
-25.0
 30
-190.7016261999
 11
110.9406200986
 21
-25.0
 31
-191.9516262
  0
LINE
  5
7A
100
AcDbEntity
  8
CK_LEVEL_1
  6
CONTINUOUS
 62
         5
100
AcDbLine
 10
161.9406200986
 20
-39.5
 30
-176.2016262
 11
115.6056836081
 21
-39.5
 31
-176.2016262
  0
LINE
  5
7B
100
AcDbEntity
  8
CK_LEVEL_1
  6
CONTINUOUS
 62
         5
100
AcDbLine
 10
161.9406200986
 20
-25.0
 30
-161.7016262
 11
115.6056836081
 21
-25.0
 31
-161.7016262
  0
LINE
  5
7C
100
AcDbEntity
  8
CK_LEVEL_1
  6
CONTINUOUS
 62
         5
100
AcDbLine
 10
161.9406200986
 20
-10.5
 30
-176.2016262
 11
115.6056836081
 21
-10.5
 31
-176.2016262
  0
LINE
  5
7D
100
AcDbEntity
  8
CK_LEVEL_1
  6
CONTINUOUS
 62
         5
100
AcDbLine
 10
161.9406200986
 20
-25.0
 30
-190.7016261999
 11
140.6906200986
 21
-25.0
 31
-190.7016261999
  0
LINE
  5
7E
100
AcDbEntity
  8
CK_LEVEL_1
  6
CONTINUOUS
 62
         5
100
AcDbLine
 10
136.1906200986
 20
-25.0
 30
-190.7016261999
 11
115.6056836081
 21
-25.0
 31
-190.7016261999
  0
ARC
  5
7F
100
AcDbEntity
  8
CK_LEVEL_1
  6
CONTINUOUS
 62
         5
100
AcDbCircle
 10
-161.9406200986
 20
-38.5
 30
176.2016262
 40
1.0
210
0.0
220
0.0
230
-1.0
100
AcDbArc
 50
180.0
 51
270.0
  0
ARC
  5
80
100
AcDbEntity
  8
CK_LEVEL_1
  6
CONTINUOUS
 62
         5
100
AcDbCircle
 10
161.9406200986
 20
-162.7016262
 30
25.0
 40
1.0
210
0.0
220
-1.0
230
0.0
100
AcDbArc
 50
0.0
 51
90.0
  0
ARC
  5
81
100
AcDbEntity
  8
CK_LEVEL_1
  6
CONTINUOUS
 62
         5
100
AcDbCircle
 10
161.9406200986
 20
-11.5
 30
-176.2016262
 40
1.0
100
AcDbArc
 50
0.0
 51
90.0
  0
ARC
  5
82
100
AcDbEntity
  8
CK_LEVEL_1
  6
CONTINUOUS
 62
         5
100
AcDbCircle
 10
-161.9406200986
 20
-189.7016262
 30
-25.0
 40
1.0
210
0.0
220
1.0
230
0.0
100
AcDbArc
 50
180.0
 51
270.0
  0
CIRCLE
  5
83
100
AcDbEntity
  8
CK_LEVEL_1
  6
CONTINUOUS
 62
         5
100
AcDbCircle
 10
25.0
 20
-176.2016262
 30
-162.6477268798
 40
14.2071067812
210
-1.0
220
0.0
230
0.0
  0
ARC
  5
84
100
AcDbEntity
  8
CK_LEVEL_1
  6
CONTINUOUS
 62
         5
100
AcDbCircle
 10
-161.9406200986
 20
-32.5
 30
176.2016262
 40
1.0
210
0.0
220
0.0
230
-1.0
100
AcDbArc
 50
90.0
 51
180.0
  0
ARC
  5
85
100
AcDbEntity
  8
CK_LEVEL_1
  6
CONTINUOUS
 62
         5
100
AcDbCircle
 10
161.9406200986
 20
-168.7016262
 30
25.0
 40
1.0
210
0.0
220
-1.0
230
0.0
100
AcDbArc
 50
270.0
 51
360.0
  0
ARC
  5
86
100
AcDbEntity
  8
CK_LEVEL_1
  6
CONTINUOUS
 62
         5
100
AcDbCircle
 10
161.9406200986
 20
-17.5
 30
-176.2016262
 40
1.0
100
AcDbArc
 50
270.0
 51
360.0
  0
ARC
  5
87
100
AcDbEntity
  8
CK_LEVEL_1
  6
CONTINUOUS
 62
         5
100
AcDbCircle
 10
-161.9406200986
 20
-183.7016262
 30
-25.0
 40
1.0
210
0.0
220
1.0
230
0.0
100
AcDbArc
 50
90.0
 51
180.0
  0
CIRCLE
  5
88
100
AcDbEntity
  8
CK_LEVEL_1
  6
CONTINUOUS
 62
         5
100
AcDbCircle
 10
25.0
 20
-176.2016262
 30
-162.6477268798
 40
6.7928932188
210
-1.0
220
0.0
230
0.0
  0
LINE
  5
89
100
AcDbEntity
  8
CK_LEVEL_1
  6
CONTINUOUS
 62
         5
100
AcDbLine
 10
161.9406200986
 20
-31.5
 30
-176.2016262
 11
152.9406200986
 21
-31.5
 31
-176.2016262
  0
LINE
  5
8A
100
AcDbEntity
  8
CK_LEVEL_1
  6
CONTINUOUS
 62
         5
100
AcDbLine
 10
161.9406200986
 20
-25.0
 30
-169.7016262
 11
152.9406200986
 21
-25.0
 31
-169.7016262
  0
LINE
  5
8B
100
AcDbEntity
  8
CK_LEVEL_1
  6
CONTINUOUS
 62
         5
100
AcDbLine
 10
161.9406200986
 20
-18.5
 30
-176.2016262
 11
152.9406200986
 21
-18.5
 31
-176.2016262
  0
LINE
  5
8C
100
AcDbEntity
  8
CK_LEVEL_1
  6
CONTINUOUS
 62
         5
100
AcDbLine
 10
161.9406200986
 20
-25.0
 30
-182.7016262
 11
152.9406200986
 21
-25.0
 31
-182.7016262
  0
ARC
  5
8D
100
AcDbEntity
  8
CK_LEVEL_1
  6
CONTINUOUS
 62
         5
100
AcDbCircle
 10
-153.2406200986
 20
-29.3
 30
176.2016262
 40
0.3
210
0.0
220
0.0
230
-1.0
100
AcDbArc
 50
0.0
 51
90.0
  0
ARC
  5
8E
100
AcDbEntity
  8
CK_LEVEL_1
  6
CONTINUOUS
 62
         5
100
AcDbCircle
 10
153.2406200986
 20
-171.9016262
 30
25.0
 40
0.3
210
0.0
220
-1.0
230
0.0
100
AcDbArc
 50
180.0
 51
270.0
  0
ARC
  5
8F
100
AcDbEntity
  8
CK_LEVEL_1
  6
CONTINUOUS
 62
         5
100
AcDbCircle
 10
153.2406200986
 20
-20.7
 30
-176.2016262
 40
0.3
100
AcDbArc
 50
180.0
 51
270.0
  0
ARC
  5
90
100
AcDbEntity
  8
CK_LEVEL_1
  6
CONTINUOUS
 62
         5
100
AcDbCircle
 10
-153.2406200986
 20
-180.5016262
 30
-25.0
 40
0.3
210
0.0
220
1.0
230
0.0
100
AcDbArc
 50
0.0
 51
90.0
  0
CIRCLE
  5
91
100
AcDbEntity
  8
CK_LEVEL_1
  6
CONTINUOUS
 62
         5
100
AcDbCircle
 10
25.0
 20
-176.2016262
 30
-153.0284880642
 40
4.0878679656
210
-1.0
220
0.0
230
0.0
  0
LINE
  5
92
100
AcDbEntity
  8
CK_LEVEL_1
  6
CONTINUOUS
 62
         5
100
AcDbLine
 10
154.9406200986
 20
-29.0
 30
-176.2016262
 11
153.2406200986
 21
-29.0
 31
-176.2016262
  0
LINE
  5
93
100
AcDbEntity
  8
CK_LEVEL_1
  6
CONTINUOUS
 62
         5
100
AcDbLine
 10
154.9406200986
 20
-25.0
 30
-172.2016262
 11
153.2406200986
 21
-25.0
 31
-172.2016262
  0
LINE
  5
94
100
AcDbEntity
  8
CK_LEVEL_1
  6
CONTINUOUS
 62
         5
100
AcDbLine
 10
154.9406200986
 20
-21.0
 30
-176.2016262
 11
153.2406200986
 21
-21.0
 31
-176.2016262
  0
LINE
  5
95
100
AcDbEntity
  8
CK_LEVEL_1
  6
CONTINUOUS
 62
         5
100
AcDbLine
 10
154.9406200986
 20
-25.0
 30
-180.2016262
 11
153.2406200986
 21
-25.0
 31
-180.2016262
  0
LINE
  5
96
100
AcDbEntity
  8
CK_LEVEL_1
  6
CONTINUOUS
 62
         5
100
AcDbLine
 10
155.5406200986
 20
-28.4
 30
-176.2016262
 11
154.9406200986
 21
-29.0
 31
-176.2016262
  0
LINE
  5
97
100
AcDbEntity
  8
CK_LEVEL_1
  6
CONTINUOUS
 62
         5
100
AcDbLine
 10
155.5406200986
 20
-25.0
 30
-172.8016262
 11
154.9406200986
 21
-25.0
 31
-172.2016262
  0
LINE
  5
98
100
AcDbEntity
  8
CK_LEVEL_1
  6
CONTINUOUS
 62
         5
100
AcDbLine
 10
155.5406200986
 20
-21.6
 30
-176.2016262
 11
154.9406200986
 21
-21.0
 31
-176.2016262
  0
LINE
  5
99
100
AcDbEntity
  8
CK_LEVEL_1
  6
CONTINUOUS
 62
         5
100
AcDbLine
 10
155.5406200986
 20
-25.0
 30
-179.6016262
 11
154.9406200986
 21
-25.0
 31
-180.2016262
  0
LINE
  5
9A
100
AcDbEntity
  8
CK_LEVEL_1
  6
CONTINUOUS
 62
         5
100
AcDbLine
 10
162.4406200986
 20
-28.4
 30
-176.2016262
 11
155.5406200986
 21
-28.4
 31
-176.2016262
  0
LINE
  5
9B
100
AcDbEntity
  8
CK_LEVEL_1
  6
CONTINUOUS
 62
         5
100
AcDbLine
 10
162.4406200986
 20
-25.0
 30
-172.8016262
 11
155.5406200986
 21
-25.0
 31
-172.8016262
  0
LINE
  5
9C
100
AcDbEntity
  8
CK_LEVEL_1
  6
CONTINUOUS
 62
         5
100
AcDbLine
 10
162.4406200986
 20
-21.6
 30
-176.2016262
 11
155.5406200986
 21
-21.6
 31
-176.2016262
  0
LINE
  5
9D
100
AcDbEntity
  8
CK_LEVEL_1
  6
CONTINUOUS
 62
         5
100
AcDbLine
 10
162.4406200986
 20
-25.0
 30
-179.6016262
 11
155.5406200986
 21
-25.0
 31
-179.6016262
  0
LINE
  5
9E
100
AcDbEntity
  8
CK_LEVEL_1
  6
CONTINUOUS
 62
         5
100
AcDbLine
 10
164.4036110138
 20
-25.0
 30
-176.2016262
 11
162.4406200986
 21
-28.4
 31
-176.2016262
  0
LINE
  5
9F
100
AcDbEntity
  8
CK_LEVEL_1
  6
CONTINUOUS
 62
         5
100
AcDbLine
 10
164.4036110138
 20
-25.0
 30
-176.2016262
 11
162.4406200986
 21
-25.0
 31
-172.8016262
  0
LINE
  5
A0
100
AcDbEntity
  8
CK_LEVEL_1
  6
CONTINUOUS
 62
         5
100
AcDbLine
 10
164.4036110138
 20
-25.0
 30
-176.2016262
 11
162.4406200986
 21
-21.6
 31
-176.2016262
  0
LINE
  5
A1
100
AcDbEntity
  8
CK_LEVEL_1
  6
CONTINUOUS
 62
         5
100
AcDbLine
 10
164.4036110138
 20
-25.0
 30
-176.2016262
 11
162.4406200986
 21
-25.0
 31
-179.6016262
  0
ARC
  5
A2
100
AcDbEntity
  8
CK_LEVEL_1
  6
CONTINUOUS
 62
         5
100
AcDbCircle
 10
-165.6406200986
 20
-41.2
 30
176.2016262
 40
0.3
210
0.0
220
0.0
230
-1.0
100
AcDbArc
 50
180.0
 51
270.0
  0
ARC
  5
A3
100
AcDbEntity
  8
CK_LEVEL_1
  6
CONTINUOUS
 62
         5
100
AcDbCircle
 10
165.6406200986
 20
-160.0016262
 30
25.0
 40
0.3
210
0.0
220
-1.0
230
0.0
100
AcDbArc
 50
0.0
 51
90.0
  0
ARC
  5
A4
100
AcDbEntity
  8
CK_LEVEL_1
  6
CONTINUOUS
 62
         5
100
AcDbCircle
 10
165.6406200986
 20
-8.8
 30
-176.2016262
 40
0.3
100
AcDbArc
 50
0.0
 51
90.0
  0
ARC
  5
A5
100
AcDbEntity
  8
CK_LEVEL_1
  6
CONTINUOUS
 62
         5
100
AcDbCircle
 10
-165.6406200986
 20
-192.4016261999
 30
-25.0
 40
0.3
210
0.0
220
1.0
230
0.0
100
AcDbArc
 50
180.0
 51
270.0
  0
CIRCLE
  5
A6
100
AcDbEntity
  8
CK_LEVEL_1
  6
CONTINUOUS
 62
         5
100
AcDbCircle
 10
25.0
 20
-176.2016262
 30
-165.852752133
 40
16.4121320343
210
-1.0
220
0.0
230
0.0
  0
LINE
  5
A7
100
AcDbEntity
  8
CK_LEVEL_1
  6
CONTINUOUS
 62
         5
100
AcDbLine
 10
165.6406200986
 20
-41.5
 30
-176.2016262
 11
110.9406200986
 21
-41.5
 31
-176.2016262
  0
LINE
  5
A8
100
AcDbEntity
  8
CK_LEVEL_1
  6
CONTINUOUS
 62
         5
100
AcDbLine
 10
165.6406200986
 20
-25.0
 30
-159.7016262
 11
110.9406200986
 21
-25.0
 31
-159.7016262
  0
LINE
  5
A9
100
AcDbEntity
  8
CK_LEVEL_1
  6
CONTINUOUS
 62
         5
100
AcDbLine
 10
165.6406200986
 20
-8.5
 30
-176.2016262
 11
110.9406200986
 21
-8.5
 31
-176.2016262
  0
LINE
  5
AA
100
AcDbEntity
  8
CK_LEVEL_1
  6
CONTINUOUS
 62
         5
100
AcDbLine
 10
165.6406200986
 20
-25.0
 30
-192.7016261999
 11
140.6906200986
 21
-25.0
 31
-192.7016261999
  0
LINE
  5
AB
100
AcDbEntity
  8
CK_LEVEL_1
  6
CONTINUOUS
 62
         5
100
AcDbLine
 10
136.1906200986
 20
-25.0
 30
-192.7016261999
 11
110.9406200986
 21
-25.0
 31
-192.7016261999
  0
POLYLINE
  5
AD
100
AcDbEntity
  8
CK_LEVEL_1
  6
CONTINUOUS
 62
         5
100
AcDb3dPolyline
 66
         1
 10
0.0
 20
0.0
 30
-190.5259935507
 70
         8
  0
VERTEX
  5
AF
100
AcDbEntity
  8
CK_LEVEL_1
  6
CONTINUOUS
 62
         5
100
AcDbVertex
100
AcDb3dPolylineVertex
 10
138.4406200986
 20
-27.25
 30
-190.5259935507
 70
        32
  0
VERTEX
  5
B1
100
AcDbEntity
  8
CK_LEVEL_1
  6
CONTINUOUS
 62
         5
100
AcDbVertex
100
AcDb3dPolylineVertex
 10
138.3932832746
 20
-27.2494957037
 30
-190.5260734168
 70
        32
  0
VERTEX
  5
B3
100
AcDbEntity
  8
CK_LEVEL_1
  6
CONTINUOUS
 62
         5
100
AcDbVertex
100
AcDb3dPolylineVertex
 10
138.3456401964
 20
-27.2479751426
 30
-190.5263135022
 70
        32
  0
VERTEX
  5
B5
100
AcDbEntity
  8
CK_LEVEL_1
  6
CONTINUOUS
 62
         5
100
AcDbVertex
100
AcDb3dPolylineVertex
 10
138.2977371168
 20
-27.2454268083
 30
-190.526714538
 70
        32
  0
VERTEX
  5
B7
100
AcDbEntity
  8
CK_LEVEL_1
  6
CONTINUOUS
 62
         5
100
AcDbVertex
100
AcDb3dPolylineVertex
 10
138.2496202884
 20
-27.2418391925
 30
-190.527277255
 70
        32
  0
VERTEX
  5
B9
100
AcDbEntity
  8
CK_LEVEL_1
  6
CONTINUOUS
 62
         5
100
AcDbVertex
100
AcDb3dPolylineVertex
 10
138.201335964
 20
-27.2372007869
 30
-190.5280023842
 70
        32
  0
VERTEX
  5
BB
100
AcDbEntity
  8
CK_LEVEL_1
  6
CONTINUOUS
 62
         5
100
AcDbVertex
100
AcDb3dPolylineVertex
 10
138.1529303964
 20
-27.2315000831
 30
-190.5288906566
 70
        32
  0
VERTEX
  5
BD
100
AcDbEntity
  8
CK_LEVEL_1
  6
CONTINUOUS
 62
         5
100
AcDbVertex
100
AcDb3dPolylineVertex
 10
138.1044498381
 20
-27.2247255729
 30
-190.5299428031
 70
        32
  0
VERTEX
  5
BF
100
AcDbEntity
  8
CK_LEVEL_1
  6
CONTINUOUS
 62
         5
100
AcDbVertex
100
AcDb3dPolylineVertex
 10
138.055940542
 20
-27.2168657478
 30
-190.5311595546
 70
        32
  0
VERTEX
  5
C1
100
AcDbEntity
  8
CK_LEVEL_1
  6
CONTINUOUS
 62
         5
100
AcDbVertex
100
AcDb3dPolylineVertex
 10
138.0074487607
 20
-27.2079090996
 30
-190.532541642
 70
        32
  0
VERTEX
  5
C3
100
AcDbEntity
  8
CK_LEVEL_1
  6
CONTINUOUS
 62
         5
100
AcDbVertex
100
AcDb3dPolylineVertex
 10
137.9590199776
 20
-27.1978478717
 30
-190.5340886917
 70
        32
  0
VERTEX
  5
C5
100
AcDbEntity
  8
CK_LEVEL_1
  6
CONTINUOUS
 62
         5
100
AcDbVertex
100
AcDb3dPolylineVertex
 10
137.9106970048
 20
-27.1866873855
 30
-190.535796843
 70
        32
  0
VERTEX
  5
C7
100
AcDbEntity
  8
CK_LEVEL_1
  6
CONTINUOUS
 62
         5
100
AcDbVertex
100
AcDb3dPolylineVertex
 10
137.8625220883
 20
-27.1744357499
 30
-190.5376615967
 70
        32
  0
VERTEX
  5
C9
100
AcDbEntity
  8
CK_LEVEL_1
  6
CONTINUOUS
 62
         5
100
AcDbVertex
100
AcDb3dPolylineVertex
 10
137.8145374742
 20
-27.1611010734
 30
-190.5396784535
 70
        32
  0
VERTEX
  5
CB
100
AcDbEntity
  8
CK_LEVEL_1
  6
CONTINUOUS
 62
         5
100
AcDbVertex
100
AcDb3dPolylineVertex
 10
137.7667854085
 20
-27.1466914647
 30
-190.5418429142
 70
        32
  0
VERTEX
  5
CD
100
AcDbEntity
  8
CK_LEVEL_1
  6
CONTINUOUS
 62
         5
100
AcDbVertex
100
AcDb3dPolylineVertex
 10
137.7193081373
 20
-27.1312150324
 30
-190.5441504794
 70
        32
  0
VERTEX
  5
CF
100
AcDbEntity
  8
CK_LEVEL_1
  6
CONTINUOUS
 62
         5
100
AcDbVertex
100
AcDb3dPolylineVertex
 10
137.6721479066
 20
-27.1146798854
 30
-190.54659665
 70
        32
  0
VERTEX
  5
D1
100
AcDbEntity
  8
CK_LEVEL_1
  6
CONTINUOUS
 62
         5
100
AcDbVertex
100
AcDb3dPolylineVertex
 10
137.6253469625
 20
-27.0970941322
 30
-190.5491769267
 70
        32
  0
VERTEX
  5
D3
100
AcDbEntity
  8
CK_LEVEL_1
  6
CONTINUOUS
 62
         5
100
AcDbVertex
100
AcDb3dPolylineVertex
 10
137.578947551
 20
-27.0784658815
 30
-190.5518868101
 70
        32
  0
VERTEX
  5
D5
100
AcDbEntity
  8
CK_LEVEL_1
  6
CONTINUOUS
 62
         5
100
AcDbVertex
100
AcDb3dPolylineVertex
 10
137.5329823963
 20
-27.0588025992
 30
-190.5547211227
 70
        32
  0
VERTEX
  5
D7
100
AcDbEntity
  8
CK_LEVEL_1
  6
CONTINUOUS
 62
         5
100
AcDbVertex
100
AcDb3dPolylineVertex
 10
137.487479479
 20
-27.0381227212
 30
-190.5576723523
 70
        32
  0
VERTEX
  5
D9
100
AcDbEntity
  8
CK_LEVEL_1
  6
CONTINUOUS
 62
         5
100
AcDbVertex
100
AcDb3dPolylineVertex
 10
137.4424739294
 20
-27.0164508116
 30
-190.5607324984
 70
        32
  0
VERTEX
  5
DB
100
AcDbEntity
  8
CK_LEVEL_1
  6
CONTINUOUS
 62
         5
100
AcDbVertex
100
AcDb3dPolylineVertex
 10
137.3980008777
 20
-26.9938114342
 30
-190.56389356
 70
        32
  0
VERTEX
  5
DD
100
AcDbEntity
  8
CK_LEVEL_1
  6
CONTINUOUS
 62
         5
100
AcDbVertex
100
AcDb3dPolylineVertex
 10
137.3540954544
 20
-26.9702291531
 30
-190.5671475366
 70
        32
  0
VERTEX
  5
DF
100
AcDbEntity
  8
CK_LEVEL_1
  6
CONTINUOUS
 62
         5
100
AcDbVertex
100
AcDb3dPolylineVertex
 10
137.3107927897
 20
-26.9457285321
 30
-190.5704864273
 70
        32
  0
VERTEX
  5
E1
100
AcDbEntity
  8
CK_LEVEL_1
  6
CONTINUOUS
 62
         5
100
AcDbVertex
100
AcDb3dPolylineVertex
 10
137.2681280139
 20
-26.9203341352
 30
-190.5739022314
 70
        32
  0
VERTEX
  5
E3
100
AcDbEntity
  8
CK_LEVEL_1
  6
CONTINUOUS
 62
         5
100
AcDbVertex
100
AcDb3dPolylineVertex
 10
137.2261362573
 20
-26.8940705263
 30
-190.5773869482
 70
        32
  0
VERTEX
  5
E5
100
AcDbEntity
  8
CK_LEVEL_1
  6
CONTINUOUS
 62
         5
100
AcDbVertex
100
AcDb3dPolylineVertex
 10
137.1848526503
 20
-26.8669622695
 30
-190.580932577
 70
        32
  0
VERTEX
  5
E7
100
AcDbEntity
  8
CK_LEVEL_1
  6
CONTINUOUS
 62
         5
100
AcDbVertex
100
AcDb3dPolylineVertex
 10
137.1443106727
 20
-26.8390362551
 30
-190.5845301368
 70
        32
  0
VERTEX
  5
E9
100
AcDbEntity
  8
CK_LEVEL_1
  6
CONTINUOUS
 62
         5
100
AcDbVertex
100
AcDb3dPolylineVertex
 10
137.1045363976
 20
-26.8103302994
 30
-190.5881699844
 70
        32
  0
VERTEX
  5
EB
100
AcDbEntity
  8
CK_LEVEL_1
  6
CONTINUOUS
 62
         5
100
AcDbVertex
100
AcDb3dPolylineVertex
 10
137.0655538453
 20
-26.7808853547
 30
-190.5918431249
 70
        32
  0
VERTEX
  5
ED
100
AcDbEntity
  8
CK_LEVEL_1
  6
CONTINUOUS
 62
         5
100
AcDbVertex
100
AcDb3dPolylineVertex
 10
137.0273870359
 20
-26.7507423736
 30
-190.5955405636
 70
        32
  0
VERTEX
  5
EF
100
AcDbEntity
  8
CK_LEVEL_1
  6
CONTINUOUS
 62
         5
100
AcDbVertex
100
AcDb3dPolylineVertex
 10
136.9900599897
 20
-26.7199423086
 30
-190.5992533057
 70
        32
  0
VERTEX
  5
F1
100
AcDbEntity
  8
CK_LEVEL_1
  6
CONTINUOUS
 62
         5
100
AcDbVertex
100
AcDb3dPolylineVertex
 10
136.9535967269
 20
-26.688526112
 30
-190.6029723566
 70
        32
  0
VERTEX
  5
F3
100
AcDbEntity
  8
CK_LEVEL_1
  6
CONTINUOUS
 62
         5
100
AcDbVertex
100
AcDb3dPolylineVertex
 10
136.9180212677
 20
-26.6565347363
 30
-190.6066887214
 70
        32
  0
VERTEX
  5
F5
100
AcDbEntity
  8
CK_LEVEL_1
  6
CONTINUOUS
 62
         5
100
AcDbVertex
100
AcDb3dPolylineVertex
 10
136.8833576323
 20
-26.6240091341
 30
-190.6103934055
 70
        32
  0
VERTEX
  5
F7
100
AcDbEntity
  8
CK_LEVEL_1
  6
CONTINUOUS
 62
         5
100
AcDbVertex
100
AcDb3dPolylineVertex
 10
136.8496298409
 20
-26.5909902577
 30
-190.6140774141
 70
        32
  0
VERTEX
  5
F9
100
AcDbEntity
  8
CK_LEVEL_1
  6
CONTINUOUS
 62
         5
100
AcDbVertex
100
AcDb3dPolylineVertex
 10
136.8166115652
 20
-26.5572630913
 30
-190.617760365
 70
        32
  0
VERTEX
  5
FB
100
AcDbEntity
  8
CK_LEVEL_1
  6
CONTINUOUS
 62
         5
100
AcDbVertex
100
AcDb3dPolylineVertex
 10
136.7840864411
 20
-26.5226000003
 30
-190.6214620482
 70
        32
  0
VERTEX
  5
FD
100
AcDbEntity
  8
CK_LEVEL_1
  6
CONTINUOUS
 62
         5
100
AcDbVertex
100
AcDb3dPolylineVertex
 10
136.7520954301
 20
-26.4870250035
 30
-190.625173507
 70
        32
  0
VERTEX
  5
FF
100
AcDbEntity
  8
CK_LEVEL_1
  6
CONTINUOUS
 62
         5
100
AcDbVertex
100
AcDb3dPolylineVertex
 10
136.7206794939
 20
-26.45056212
 30
-190.6288857847
 70
        32
  0
VERTEX
  5
101
100
AcDbEntity
  8
CK_LEVEL_1
  6
CONTINUOUS
 62
         5
100
AcDbVertex
100
AcDb3dPolylineVertex
 10
136.6898795941
 20
-26.4132353688
 30
-190.6325899247
 70
        32
  0
VERTEX
  5
103
100
AcDbEntity
  8
CK_LEVEL_1
  6
CONTINUOUS
 62
         5
100
AcDbVertex
100
AcDb3dPolylineVertex
 10
136.6597366922
 20
-26.3750687689
 30
-190.6362769703
 70
        32
  0
VERTEX
  5
105
100
AcDbEntity
  8
CK_LEVEL_1
  6
CONTINUOUS
 62
         5
100
AcDbVertex
100
AcDb3dPolylineVertex
 10
136.6302917499
 20
-26.3360863393
 30
-190.6399379649
 70
        32
  0
VERTEX
  5
107
100
AcDbEntity
  8
CK_LEVEL_1
  6
CONTINUOUS
 62
         5
100
AcDbVertex
100
AcDb3dPolylineVertex
 10
136.6015857288
 20
-26.2963120989
 30
-190.6435639516
 70
        32
  0
VERTEX
  5
109
100
AcDbEntity
  8
CK_LEVEL_1
  6
CONTINUOUS
 62
         5
100
AcDbVertex
100
AcDb3dPolylineVertex
 10
136.5736595904
 20
-26.2557700668
 30
-190.6471459739
 70
        32
  0
VERTEX
  5
10B
100
AcDbEntity
  8
CK_LEVEL_1
  6
CONTINUOUS
 62
         5
100
AcDbVertex
100
AcDb3dPolylineVertex
 10
136.5465511635
 20
-26.2144863168
 30
-190.6506744732
 70
        32
  0
VERTEX
  5
10D
100
AcDbEntity
  8
CK_LEVEL_1
  6
CONTINUOUS
 62
         5
100
AcDbVertex
100
AcDb3dPolylineVertex
 10
136.520287351
 20
-26.1724943372
 30
-190.6541406421
 70
        32
  0
VERTEX
  5
10F
100
AcDbEntity
  8
CK_LEVEL_1
  6
CONTINUOUS
 62
         5
100
AcDbVertex
100
AcDb3dPolylineVertex
 10
136.4948927251
 20
-26.1298292689
 30
-190.6575366505
 70
        32
  0
VERTEX
  5
111
100
AcDbEntity
  8
CK_LEVEL_1
  6
CONTINUOUS
 62
         5
100
AcDbVertex
100
AcDb3dPolylineVertex
 10
136.4703918582
 20
-26.0865262525
 30
-190.6608546686
 70
        32
  0
VERTEX
  5
113
100
AcDbEntity
  8
CK_LEVEL_1
  6
CONTINUOUS
 62
         5
100
AcDbVertex
100
AcDb3dPolylineVertex
 10
136.4468093225
 20
-26.042620429
 30
-190.6640868662
 70
        32
  0
VERTEX
  5
115
100
AcDbEntity
  8
CK_LEVEL_1
  6
CONTINUOUS
 62
         5
100
AcDbVertex
100
AcDb3dPolylineVertex
 10
136.4241696905
 20
-25.9981469389
 30
-190.6672254134
 70
        32
  0
VERTEX
  5
117
100
AcDbEntity
  8
CK_LEVEL_1
  6
CONTINUOUS
 62
         5
100
AcDbVertex
100
AcDb3dPolylineVertex
 10
136.4024975344
 20
-25.9531409231
 30
-190.6702624801
 70
        32
  0
VERTEX
  5
119
100
AcDbEntity
  8
CK_LEVEL_1
  6
CONTINUOUS
 62
         5
100
AcDbVertex
100
AcDb3dPolylineVertex
 10
136.3818174265
 20
-25.9076375224
 30
-190.6731902364
 70
        32
  0
VERTEX
  5
11B
100
AcDbEntity
  8
CK_LEVEL_1
  6
CONTINUOUS
 62
         5
100
AcDbVertex
100
AcDb3dPolylineVertex
 10
136.3621539393
 20
-25.8616718775
 30
-190.6760008523
 70
        32
  0
VERTEX
  5
11D
100
AcDbEntity
  8
CK_LEVEL_1
  6
CONTINUOUS
 62
         5
100
AcDbVertex
100
AcDb3dPolylineVertex
 10
136.3435255162
 20
-25.8152719805
 30
-190.6786870295
 70
        32
  0
VERTEX
  5
11F
100
AcDbEntity
  8
CK_LEVEL_1
  6
CONTINUOUS
 62
         5
100
AcDbVertex
100
AcDb3dPolylineVertex
 10
136.3259396242
 20
-25.7684705666
 30
-190.6812438057
 70
        32
  0
VERTEX
  5
121
100
AcDbEntity
  8
CK_LEVEL_1
  6
CONTINUOUS
 62
         5
100
AcDbVertex
100
AcDb3dPolylineVertex
 10
136.3094043707
 20
-25.721309891
 30
-190.6836668546
 70
        32
  0
VERTEX
  5
123
100
AcDbEntity
  8
CK_LEVEL_1
  6
CONTINUOUS
 62
         5
100
AcDbVertex
100
AcDb3dPolylineVertex
 10
136.2939278631
 20
-25.6738322089
 30
-190.6859518503
 70
        32
  0
VERTEX
  5
125
100
AcDbEntity
  8
CK_LEVEL_1
  6
CONTINUOUS
 62
         5
100
AcDbVertex
100
AcDb3dPolylineVertex
 10
136.2795182088
 20
-25.6260797755
 30
-190.6880944663
 70
        32
  0
VERTEX
  5
127
100
AcDbEntity
  8
CK_LEVEL_1
  6
CONTINUOUS
 62
         5
100
AcDbVertex
100
AcDb3dPolylineVertex
 10
136.2661835151
 20
-25.5780948462
 30
-190.6900903766
 70
        32
  0
VERTEX
  5
129
100
AcDbEntity
  8
CK_LEVEL_1
  6
CONTINUOUS
 62
         5
100
AcDbVertex
100
AcDb3dPolylineVertex
 10
136.2539318896
 20
-25.5299196761
 30
-190.6919352549
 70
        32
  0
VERTEX
  5
12B
100
AcDbEntity
  8
CK_LEVEL_1
  6
CONTINUOUS
 62
         5
100
AcDbVertex
100
AcDb3dPolylineVertex
 10
136.2427714396
 20
-25.4815965204
 30
-190.6936247751
 70
        32
  0
VERTEX
  5
12D
100
AcDbEntity
  8
CK_LEVEL_1
  6
CONTINUOUS
 62
         5
100
AcDbVertex
100
AcDb3dPolylineVertex
 10
136.2327102724
 20
-25.4331676344
 30
-190.6951546109
 70
        32
  0
VERTEX
  5
12F
100
AcDbEntity
  8
CK_LEVEL_1
  6
CONTINUOUS
 62
         5
100
AcDbVertex
100
AcDb3dPolylineVertex
 10
136.2237537066
 20
-25.3846758397
 30
-190.6965210794
 70
        32
  0
VERTEX
  5
131
100
AcDbEntity
  8
CK_LEVEL_1
  6
CONTINUOUS
 62
         5
100
AcDbVertex
100
AcDb3dPolylineVertex
 10
136.2158939788
 20
-25.336166626
 30
-190.6977238959
 70
        32
  0
VERTEX
  5
133
100
AcDbEntity
  8
CK_LEVEL_1
  6
CONTINUOUS
 62
         5
100
AcDbVertex
100
AcDb3dPolylineVertex
 10
136.2091195742
 20
-25.2876862503
 30
-190.6987638325
 70
        32
  0
VERTEX
  5
135
100
AcDbEntity
  8
CK_LEVEL_1
  6
CONTINUOUS
 62
         5
100
AcDbVertex
100
AcDb3dPolylineVertex
 10
136.2034189778
 20
-25.23928097
 30
-190.6996416611
 70
        32
  0
VERTEX
  5
137
100
AcDbEntity
  8
CK_LEVEL_1
  6
CONTINUOUS
 62
         5
100
AcDbVertex
100
AcDb3dPolylineVertex
 10
136.1987806749
 20
-25.1909970422
 30
-190.7003581535
 70
        32
  0
VERTEX
  5
139
100
AcDbEntity
  8
CK_LEVEL_1
  6
CONTINUOUS
 62
         5
100
AcDbVertex
100
AcDb3dPolylineVertex
 10
136.1951931504
 20
-25.1428807241
 30
-190.7009140817
 70
        32
  0
VERTEX
  5
13B
100
AcDbEntity
  8
CK_LEVEL_1
  6
CONTINUOUS
 62
         5
100
AcDbVertex
100
AcDb3dPolylineVertex
 10
136.1926448895
 20
-25.0949782729
 30
-190.7013102175
 70
        32
  0
VERTEX
  5
13D
100
AcDbEntity
  8
CK_LEVEL_1
  6
CONTINUOUS
 62
         5
100
AcDbVertex
100
AcDb3dPolylineVertex
 10
136.1911243772
 20
-25.0473359458
 30
-190.701547333
 70
        32
  0
VERTEX
  5
13F
100
AcDbEntity
  8
CK_LEVEL_1
  6
CONTINUOUS
 62
         5
100
AcDbVertex
100
AcDb3dPolylineVertex
 10
136.1906200986
 20
-25.0
 30
-190.7016261999
 70
        32
  0
VERTEX
  5
141
100
AcDbEntity
  8
CK_LEVEL_1
  6
CONTINUOUS
 62
         5
100
AcDbVertex
100
AcDb3dPolylineVertex
 10
136.1911243772
 20
-24.9526640542
 30
-190.701547333
 70
        32
  0
VERTEX
  5
143
100
AcDbEntity
  8
CK_LEVEL_1
  6
CONTINUOUS
 62
         5
100
AcDbVertex
100
AcDb3dPolylineVertex
 10
136.1926448895
 20
-24.9050217271
 30
-190.7013102175
 70
        32
  0
VERTEX
  5
145
100
AcDbEntity
  8
CK_LEVEL_1
  6
CONTINUOUS
 62
         5
100
AcDbVertex
100
AcDb3dPolylineVertex
 10
136.1951931504
 20
-24.8571192759
 30
-190.7009140817
 70
        32
  0
VERTEX
  5
147
100
AcDbEntity
  8
CK_LEVEL_1
  6
CONTINUOUS
 62
         5
100
AcDbVertex
100
AcDb3dPolylineVertex
 10
136.1987806749
 20
-24.8090029578
 30
-190.7003581535
 70
        32
  0
VERTEX
  5
149
100
AcDbEntity
  8
CK_LEVEL_1
  6
CONTINUOUS
 62
         5
100
AcDbVertex
100
AcDb3dPolylineVertex
 10
136.2034189778
 20
-24.76071903
 30
-190.6996416611
 70
        32
  0
VERTEX
  5
14B
100
AcDbEntity
  8
CK_LEVEL_1
  6
CONTINUOUS
 62
         5
100
AcDbVertex
100
AcDb3dPolylineVertex
 10
136.2091195742
 20
-24.7123137497
 30
-190.6987638325
 70
        32
  0
VERTEX
  5
14D
100
AcDbEntity
  8
CK_LEVEL_1
  6
CONTINUOUS
 62
         5
100
AcDbVertex
100
AcDb3dPolylineVertex
 10
136.2158939788
 20
-24.663833374
 30
-190.6977238959
 70
        32
  0
VERTEX
  5
14F
100
AcDbEntity
  8
CK_LEVEL_1
  6
CONTINUOUS
 62
         5
100
AcDbVertex
100
AcDb3dPolylineVertex
 10
136.2237537066
 20
-24.6153241603
 30
-190.6965210794
 70
        32
  0
VERTEX
  5
151
100
AcDbEntity
  8
CK_LEVEL_1
  6
CONTINUOUS
 62
         5
100
AcDbVertex
100
AcDb3dPolylineVertex
 10
136.2327102724
 20
-24.5668323656
 30
-190.6951546109
 70
        32
  0
VERTEX
  5
153
100
AcDbEntity
  8
CK_LEVEL_1
  6
CONTINUOUS
 62
         5
100
AcDbVertex
100
AcDb3dPolylineVertex
 10
136.2427714396
 20
-24.5184034796
 30
-190.6936247751
 70
        32
  0
VERTEX
  5
155
100
AcDbEntity
  8
CK_LEVEL_1
  6
CONTINUOUS
 62
         5
100
AcDbVertex
100
AcDb3dPolylineVertex
 10
136.2539318896
 20
-24.4700803239
 30
-190.6919352549
 70
        32
  0
VERTEX
  5
157
100
AcDbEntity
  8
CK_LEVEL_1
  6
CONTINUOUS
 62
         5
100
AcDbVertex
100
AcDb3dPolylineVertex
 10
136.2661835151
 20
-24.4219051538
 30
-190.6900903766
 70
        32
  0
VERTEX
  5
159
100
AcDbEntity
  8
CK_LEVEL_1
  6
CONTINUOUS
 62
         5
100
AcDbVertex
100
AcDb3dPolylineVertex
 10
136.2795182088
 20
-24.3739202245
 30
-190.6880944663
 70
        32
  0
VERTEX
  5
15B
100
AcDbEntity
  8
CK_LEVEL_1
  6
CONTINUOUS
 62
         5
100
AcDbVertex
100
AcDb3dPolylineVertex
 10
136.2939278631
 20
-24.3261677911
 30
-190.6859518503
 70
        32
  0
VERTEX
  5
15D
100
AcDbEntity
  8
CK_LEVEL_1
  6
CONTINUOUS
 62
         5
100
AcDbVertex
100
AcDb3dPolylineVertex
 10
136.3094043707
 20
-24.278690109
 30
-190.6836668546
 70
        32
  0
VERTEX
  5
15F
100
AcDbEntity
  8
CK_LEVEL_1
  6
CONTINUOUS
 62
         5
100
AcDbVertex
100
AcDb3dPolylineVertex
 10
136.3259396242
 20
-24.2315294334
 30
-190.6812438057
 70
        32
  0
VERTEX
  5
161
100
AcDbEntity
  8
CK_LEVEL_1
  6
CONTINUOUS
 62
         5
100
AcDbVertex
100
AcDb3dPolylineVertex
 10
136.3435255162
 20
-24.1847280195
 30
-190.6786870295
 70
        32
  0
VERTEX
  5
163
100
AcDbEntity
  8
CK_LEVEL_1
  6
CONTINUOUS
 62
         5
100
AcDbVertex
100
AcDb3dPolylineVertex
 10
136.3621539393
 20
-24.1383281225
 30
-190.6760008523
 70
        32
  0
VERTEX
  5
165
100
AcDbEntity
  8
CK_LEVEL_1
  6
CONTINUOUS
 62
         5
100
AcDbVertex
100
AcDb3dPolylineVertex
 10
136.3818174265
 20
-24.0923624776
 30
-190.6731902364
 70
        32
  0
VERTEX
  5
167
100
AcDbEntity
  8
CK_LEVEL_1
  6
CONTINUOUS
 62
         5
100
AcDbVertex
100
AcDb3dPolylineVertex
 10
136.4024975344
 20
-24.0468590769
 30
-190.6702624801
 70
        32
  0
VERTEX
  5
169
100
AcDbEntity
  8
CK_LEVEL_1
  6
CONTINUOUS
 62
         5
100
AcDbVertex
100
AcDb3dPolylineVertex
 10
136.4241696905
 20
-24.0018530611
 30
-190.6672254134
 70
        32
  0
VERTEX
  5
16B
100
AcDbEntity
  8
CK_LEVEL_1
  6
CONTINUOUS
 62
         5
100
AcDbVertex
100
AcDb3dPolylineVertex
 10
136.4468093225
 20
-23.957379571
 30
-190.6640868662
 70
        32
  0
VERTEX
  5
16D
100
AcDbEntity
  8
CK_LEVEL_1
  6
CONTINUOUS
 62
         5
100
AcDbVertex
100
AcDb3dPolylineVertex
 10
136.4703918582
 20
-23.9134737475
 30
-190.6608546686
 70
        32
  0
VERTEX
  5
16F
100
AcDbEntity
  8
CK_LEVEL_1
  6
CONTINUOUS
 62
         5
100
AcDbVertex
100
AcDb3dPolylineVertex
 10
136.4948927251
 20
-23.8701707311
 30
-190.6575366505
 70
        32
  0
VERTEX
  5
171
100
AcDbEntity
  8
CK_LEVEL_1
  6
CONTINUOUS
 62
         5
100
AcDbVertex
100
AcDb3dPolylineVertex
 10
136.520287351
 20
-23.8275056628
 30
-190.6541406421
 70
        32
  0
VERTEX
  5
173
100
AcDbEntity
  8
CK_LEVEL_1
  6
CONTINUOUS
 62
         5
100
AcDbVertex
100
AcDb3dPolylineVertex
 10
136.5465511635
 20
-23.7855136832
 30
-190.6506744732
 70
        32
  0
VERTEX
  5
175
100
AcDbEntity
  8
CK_LEVEL_1
  6
CONTINUOUS
 62
         5
100
AcDbVertex
100
AcDb3dPolylineVertex
 10
136.5736595904
 20
-23.7442299332
 30
-190.6471459739
 70
        32
  0
VERTEX
  5
177
100
AcDbEntity
  8
CK_LEVEL_1
  6
CONTINUOUS
 62
         5
100
AcDbVertex
100
AcDb3dPolylineVertex
 10
136.6015857288
 20
-23.7036879011
 30
-190.6435639516
 70
        32
  0
VERTEX
  5
179
100
AcDbEntity
  8
CK_LEVEL_1
  6
CONTINUOUS
 62
         5
100
AcDbVertex
100
AcDb3dPolylineVertex
 10
136.6302917499
 20
-23.6639136607
 30
-190.6399379649
 70
        32
  0
VERTEX
  5
17B
100
AcDbEntity
  8
CK_LEVEL_1
  6
CONTINUOUS
 62
         5
100
AcDbVertex
100
AcDb3dPolylineVertex
 10
136.6597366922
 20
-23.6249312311
 30
-190.6362769703
 70
        32
  0
VERTEX
  5
17D
100
AcDbEntity
  8
CK_LEVEL_1
  6
CONTINUOUS
 62
         5
100
AcDbVertex
100
AcDb3dPolylineVertex
 10
136.6898795941
 20
-23.5867646312
 30
-190.6325899247
 70
        32
  0
VERTEX
  5
17F
100
AcDbEntity
  8
CK_LEVEL_1
  6
CONTINUOUS
 62
         5
100
AcDbVertex
100
AcDb3dPolylineVertex
 10
136.7206794939
 20
-23.54943788
 30
-190.6288857847
 70
        32
  0
VERTEX
  5
181
100
AcDbEntity
  8
CK_LEVEL_1
  6
CONTINUOUS
 62
         5
100
AcDbVertex
100
AcDb3dPolylineVertex
 10
136.7520954301
 20
-23.5129749965
 30
-190.625173507
 70
        32
  0
VERTEX
  5
183
100
AcDbEntity
  8
CK_LEVEL_1
  6
CONTINUOUS
 62
         5
100
AcDbVertex
100
AcDb3dPolylineVertex
 10
136.7840864411
 20
-23.4773999997
 30
-190.6214620482
 70
        32
  0
VERTEX
  5
185
100
AcDbEntity
  8
CK_LEVEL_1
  6
CONTINUOUS
 62
         5
100
AcDbVertex
100
AcDb3dPolylineVertex
 10
136.8166115652
 20
-23.4427369087
 30
-190.617760365
 70
        32
  0
VERTEX
  5
187
100
AcDbEntity
  8
CK_LEVEL_1
  6
CONTINUOUS
 62
         5
100
AcDbVertex
100
AcDb3dPolylineVertex
 10
136.8496298409
 20
-23.4090097423
 30
-190.6140774141
 70
        32
  0
VERTEX
  5
189
100
AcDbEntity
  8
CK_LEVEL_1
  6
CONTINUOUS
 62
         5
100
AcDbVertex
100
AcDb3dPolylineVertex
 10
136.8833576323
 20
-23.3759908659
 30
-190.6103934055
 70
        32
  0
VERTEX
  5
18B
100
AcDbEntity
  8
CK_LEVEL_1
  6
CONTINUOUS
 62
         5
100
AcDbVertex
100
AcDb3dPolylineVertex
 10
136.9180212677
 20
-23.3434652637
 30
-190.6066887214
 70
        32
  0
VERTEX
  5
18D
100
AcDbEntity
  8
CK_LEVEL_1
  6
CONTINUOUS
 62
         5
100
AcDbVertex
100
AcDb3dPolylineVertex
 10
136.9535967269
 20
-23.311473888
 30
-190.6029723566
 70
        32
  0
VERTEX
  5
18F
100
AcDbEntity
  8
CK_LEVEL_1
  6
CONTINUOUS
 62
         5
100
AcDbVertex
100
AcDb3dPolylineVertex
 10
136.9900599897
 20
-23.2800576914
 30
-190.5992533057
 70
        32
  0
VERTEX
  5
191
100
AcDbEntity
  8
CK_LEVEL_1
  6
CONTINUOUS
 62
         5
100
AcDbVertex
100
AcDb3dPolylineVertex
 10
137.0273870359
 20
-23.2492576264
 30
-190.5955405636
 70
        32
  0
VERTEX
  5
193
100
AcDbEntity
  8
CK_LEVEL_1
  6
CONTINUOUS
 62
         5
100
AcDbVertex
100
AcDb3dPolylineVertex
 10
137.0655538453
 20
-23.2191146453
 30
-190.5918431249
 70
        32
  0
VERTEX
  5
195
100
AcDbEntity
  8
CK_LEVEL_1
  6
CONTINUOUS
 62
         5
100
AcDbVertex
100
AcDb3dPolylineVertex
 10
137.1045363976
 20
-23.1896697006
 30
-190.5881699844
 70
        32
  0
VERTEX
  5
197
100
AcDbEntity
  8
CK_LEVEL_1
  6
CONTINUOUS
 62
         5
100
AcDbVertex
100
AcDb3dPolylineVertex
 10
137.1443106727
 20
-23.1609637449
 30
-190.5845301368
 70
        32
  0
VERTEX
  5
199
100
AcDbEntity
  8
CK_LEVEL_1
  6
CONTINUOUS
 62
         5
100
AcDbVertex
100
AcDb3dPolylineVertex
 10
137.1848526503
 20
-23.1330377305
 30
-190.580932577
 70
        32
  0
VERTEX
  5
19B
100
AcDbEntity
  8
CK_LEVEL_1
  6
CONTINUOUS
 62
         5
100
AcDbVertex
100
AcDb3dPolylineVertex
 10
137.2261362573
 20
-23.1059294737
 30
-190.5773869482
 70
        32
  0
VERTEX
  5
19D
100
AcDbEntity
  8
CK_LEVEL_1
  6
CONTINUOUS
 62
         5
100
AcDbVertex
100
AcDb3dPolylineVertex
 10
137.2681280139
 20
-23.0796658648
 30
-190.5739022314
 70
        32
  0
VERTEX
  5
19F
100
AcDbEntity
  8
CK_LEVEL_1
  6
CONTINUOUS
 62
         5
100
AcDbVertex
100
AcDb3dPolylineVertex
 10
137.3107927897
 20
-23.0542714679
 30
-190.5704864273
 70
        32
  0
VERTEX
  5
1A1
100
AcDbEntity
  8
CK_LEVEL_1
  6
CONTINUOUS
 62
         5
100
AcDbVertex
100
AcDb3dPolylineVertex
 10
137.3540954544
 20
-23.0297708469
 30
-190.5671475366
 70
        32
  0
VERTEX
  5
1A3
100
AcDbEntity
  8
CK_LEVEL_1
  6
CONTINUOUS
 62
         5
100
AcDbVertex
100
AcDb3dPolylineVertex
 10
137.3980008777
 20
-23.0061885658
 30
-190.56389356
 70
        32
  0
VERTEX
  5
1A5
100
AcDbEntity
  8
CK_LEVEL_1
  6
CONTINUOUS
 62
         5
100
AcDbVertex
100
AcDb3dPolylineVertex
 10
137.4424739294
 20
-22.9835491884
 30
-190.5607324984
 70
        32
  0
VERTEX
  5
1A7
100
AcDbEntity
  8
CK_LEVEL_1
  6
CONTINUOUS
 62
         5
100
AcDbVertex
100
AcDb3dPolylineVertex
 10
137.487479479
 20
-22.9618772788
 30
-190.5576723523
 70
        32
  0
VERTEX
  5
1A9
100
AcDbEntity
  8
CK_LEVEL_1
  6
CONTINUOUS
 62
         5
100
AcDbVertex
100
AcDb3dPolylineVertex
 10
137.5329823963
 20
-22.9411974008
 30
-190.5547211227
 70
        32
  0
VERTEX
  5
1AB
100
AcDbEntity
  8
CK_LEVEL_1
  6
CONTINUOUS
 62
         5
100
AcDbVertex
100
AcDb3dPolylineVertex
 10
137.578947551
 20
-22.9215341185
 30
-190.5518868101
 70
        32
  0
VERTEX
  5
1AD
100
AcDbEntity
  8
CK_LEVEL_1
  6
CONTINUOUS
 62
         5
100
AcDbVertex
100
AcDb3dPolylineVertex
 10
137.6253469625
 20
-22.9029058678
 30
-190.5491769267
 70
        32
  0
VERTEX
  5
1AF
100
AcDbEntity
  8
CK_LEVEL_1
  6
CONTINUOUS
 62
         5
100
AcDbVertex
100
AcDb3dPolylineVertex
 10
137.6721479066
 20
-22.8853201146
 30
-190.54659665
 70
        32
  0
VERTEX
  5
1B1
100
AcDbEntity
  8
CK_LEVEL_1
  6
CONTINUOUS
 62
         5
100
AcDbVertex
100
AcDb3dPolylineVertex
 10
137.7193081373
 20
-22.8687849676
 30
-190.5441504794
 70
        32
  0
VERTEX
  5
1B3
100
AcDbEntity
  8
CK_LEVEL_1
  6
CONTINUOUS
 62
         5
100
AcDbVertex
100
AcDb3dPolylineVertex
 10
137.7667854085
 20
-22.8533085353
 30
-190.5418429142
 70
        32
  0
VERTEX
  5
1B5
100
AcDbEntity
  8
CK_LEVEL_1
  6
CONTINUOUS
 62
         5
100
AcDbVertex
100
AcDb3dPolylineVertex
 10
137.8145374742
 20
-22.8388989266
 30
-190.5396784535
 70
        32
  0
VERTEX
  5
1B7
100
AcDbEntity
  8
CK_LEVEL_1
  6
CONTINUOUS
 62
         5
100
AcDbVertex
100
AcDb3dPolylineVertex
 10
137.8625220883
 20
-22.8255642501
 30
-190.5376615967
 70
        32
  0
VERTEX
  5
1B9
100
AcDbEntity
  8
CK_LEVEL_1
  6
CONTINUOUS
 62
         5
100
AcDbVertex
100
AcDb3dPolylineVertex
 10
137.9106970048
 20
-22.8133126145
 30
-190.535796843
 70
        32
  0
VERTEX
  5
1BB
100
AcDbEntity
  8
CK_LEVEL_1
  6
CONTINUOUS
 62
         5
100
AcDbVertex
100
AcDb3dPolylineVertex
 10
137.9590199776
 20
-22.8021521283
 30
-190.5340886917
 70
        32
  0
VERTEX
  5
1BD
100
AcDbEntity
  8
CK_LEVEL_1
  6
CONTINUOUS
 62
         5
100
AcDbVertex
100
AcDb3dPolylineVertex
 10
138.0074487607
 20
-22.7920909004
 30
-190.532541642
 70
        32
  0
VERTEX
  5
1BF
100
AcDbEntity
  8
CK_LEVEL_1
  6
CONTINUOUS
 62
         5
100
AcDbVertex
100
AcDb3dPolylineVertex
 10
138.055940542
 20
-22.7831342522
 30
-190.5311595546
 70
        32
  0
VERTEX
  5
1C1
100
AcDbEntity
  8
CK_LEVEL_1
  6
CONTINUOUS
 62
         5
100
AcDbVertex
100
AcDb3dPolylineVertex
 10
138.1044498381
 20
-22.7752744271
 30
-190.5299428031
 70
        32
  0
VERTEX
  5
1C3
100
AcDbEntity
  8
CK_LEVEL_1
  6
CONTINUOUS
 62
         5
100
AcDbVertex
100
AcDb3dPolylineVertex
 10
138.1529303964
 20
-22.7684999169
 30
-190.5288906566
 70
        32
  0
VERTEX
  5
1C5
100
AcDbEntity
  8
CK_LEVEL_1
  6
CONTINUOUS
 62
         5
100
AcDbVertex
100
AcDb3dPolylineVertex
 10
138.201335964
 20
-22.7627992131
 30
-190.5280023842
 70
        32
  0
VERTEX
  5
1C7
100
AcDbEntity
  8
CK_LEVEL_1
  6
CONTINUOUS
 62
         5
100
AcDbVertex
100
AcDb3dPolylineVertex
 10
138.2496202884
 20
-22.7581608075
 30
-190.527277255
 70
        32
  0
VERTEX
  5
1C9
100
AcDbEntity
  8
CK_LEVEL_1
  6
CONTINUOUS
 62
         5
100
AcDbVertex
100
AcDb3dPolylineVertex
 10
138.2977371168
 20
-22.7545731917
 30
-190.526714538
 70
        32
  0
VERTEX
  5
1CB
100
AcDbEntity
  8
CK_LEVEL_1
  6
CONTINUOUS
 62
         5
100
AcDbVertex
100
AcDb3dPolylineVertex
 10
138.3456401964
 20
-22.7520248574
 30
-190.5263135022
 70
        32
  0
VERTEX
  5
1CD
100
AcDbEntity
  8
CK_LEVEL_1
  6
CONTINUOUS
 62
         5
100
AcDbVertex
100
AcDb3dPolylineVertex
 10
138.3932832746
 20
-22.7505042963
 30
-190.5260734168
 70
        32
  0
VERTEX
  5
1CF
100
AcDbEntity
  8
CK_LEVEL_1
  6
CONTINUOUS
 62
         5
100
AcDbVertex
100
AcDb3dPolylineVertex
 10
138.4406200986
 20
-22.75
 30
-190.5259935507
 70
        32
  0
VERTEX
  5
1D1
100
AcDbEntity
  8
CK_LEVEL_1
  6
CONTINUOUS
 62
         5
100
AcDbVertex
100
AcDb3dPolylineVertex
 10
138.4879569226
 20
-22.7505042963
 30
-190.5260734168
 70
        32
  0
VERTEX
  5
1D3
100
AcDbEntity
  8
CK_LEVEL_1
  6
CONTINUOUS
 62
         5
100
AcDbVertex
100
AcDb3dPolylineVertex
 10
138.5356000008
 20
-22.7520248574
 30
-190.5263135022
 70
        32
  0
VERTEX
  5
1D5
100
AcDbEntity
  8
CK_LEVEL_1
  6
CONTINUOUS
 62
         5
100
AcDbVertex
100
AcDb3dPolylineVertex
 10
138.5835030804
 20
-22.7545731917
 30
-190.526714538
 70
        32
  0
VERTEX
  5
1D7
100
AcDbEntity
  8
CK_LEVEL_1
  6
CONTINUOUS
 62
         5
100
AcDbVertex
100
AcDb3dPolylineVertex
 10
138.6316199088
 20
-22.7581608075
 30
-190.527277255
 70
        32
  0
VERTEX
  5
1D9
100
AcDbEntity
  8
CK_LEVEL_1
  6
CONTINUOUS
 62
         5
100
AcDbVertex
100
AcDb3dPolylineVertex
 10
138.6799042332
 20
-22.7627992131
 30
-190.5280023842
 70
        32
  0
VERTEX
  5
1DB
100
AcDbEntity
  8
CK_LEVEL_1
  6
CONTINUOUS
 62
         5
100
AcDbVertex
100
AcDb3dPolylineVertex
 10
138.7283098008
 20
-22.7684999169
 30
-190.5288906566
 70
        32
  0
VERTEX
  5
1DD
100
AcDbEntity
  8
CK_LEVEL_1
  6
CONTINUOUS
 62
         5
100
AcDbVertex
100
AcDb3dPolylineVertex
 10
138.7767903591
 20
-22.7752744271
 30
-190.5299428031
 70
        32
  0
VERTEX
  5
1DF
100
AcDbEntity
  8
CK_LEVEL_1
  6
CONTINUOUS
 62
         5
100
AcDbVertex
100
AcDb3dPolylineVertex
 10
138.8252996552
 20
-22.7831342522
 30
-190.5311595546
 70
        32
  0
VERTEX
  5
1E1
100
AcDbEntity
  8
CK_LEVEL_1
  6
CONTINUOUS
 62
         5
100
AcDbVertex
100
AcDb3dPolylineVertex
 10
138.8737914365
 20
-22.7920909004
 30
-190.532541642
 70
        32
  0
VERTEX
  5
1E3
100
AcDbEntity
  8
CK_LEVEL_1
  6
CONTINUOUS
 62
         5
100
AcDbVertex
100
AcDb3dPolylineVertex
 10
138.9222202196
 20
-22.8021521283
 30
-190.5340886917
 70
        32
  0
VERTEX
  5
1E5
100
AcDbEntity
  8
CK_LEVEL_1
  6
CONTINUOUS
 62
         5
100
AcDbVertex
100
AcDb3dPolylineVertex
 10
138.9705431924
 20
-22.8133126145
 30
-190.535796843
 70
        32
  0
VERTEX
  5
1E7
100
AcDbEntity
  8
CK_LEVEL_1
  6
CONTINUOUS
 62
         5
100
AcDbVertex
100
AcDb3dPolylineVertex
 10
139.0187181089
 20
-22.8255642501
 30
-190.5376615967
 70
        32
  0
VERTEX
  5
1E9
100
AcDbEntity
  8
CK_LEVEL_1
  6
CONTINUOUS
 62
         5
100
AcDbVertex
100
AcDb3dPolylineVertex
 10
139.066702723
 20
-22.8388989266
 30
-190.5396784535
 70
        32
  0
VERTEX
  5
1EB
100
AcDbEntity
  8
CK_LEVEL_1
  6
CONTINUOUS
 62
         5
100
AcDbVertex
100
AcDb3dPolylineVertex
 10
139.1144547887
 20
-22.8533085353
 30
-190.5418429142
 70
        32
  0
VERTEX
  5
1ED
100
AcDbEntity
  8
CK_LEVEL_1
  6
CONTINUOUS
 62
         5
100
AcDbVertex
100
AcDb3dPolylineVertex
 10
139.1619320599
 20
-22.8687849676
 30
-190.5441504794
 70
        32
  0
VERTEX
  5
1EF
100
AcDbEntity
  8
CK_LEVEL_1
  6
CONTINUOUS
 62
         5
100
AcDbVertex
100
AcDb3dPolylineVertex
 10
139.2090922906
 20
-22.8853201146
 30
-190.54659665
 70
        32
  0
VERTEX
  5
1F1
100
AcDbEntity
  8
CK_LEVEL_1
  6
CONTINUOUS
 62
         5
100
AcDbVertex
100
AcDb3dPolylineVertex
 10
139.2558932347
 20
-22.9029058678
 30
-190.5491769267
 70
        32
  0
VERTEX
  5
1F3
100
AcDbEntity
  8
CK_LEVEL_1
  6
CONTINUOUS
 62
         5
100
AcDbVertex
100
AcDb3dPolylineVertex
 10
139.3022926462
 20
-22.9215341185
 30
-190.5518868101
 70
        32
  0
VERTEX
  5
1F5
100
AcDbEntity
  8
CK_LEVEL_1
  6
CONTINUOUS
 62
         5
100
AcDbVertex
100
AcDb3dPolylineVertex
 10
139.3482578009
 20
-22.9411974008
 30
-190.5547211227
 70
        32
  0
VERTEX
  5
1F7
100
AcDbEntity
  8
CK_LEVEL_1
  6
CONTINUOUS
 62
         5
100
AcDbVertex
100
AcDb3dPolylineVertex
 10
139.3937607182
 20
-22.9618772788
 30
-190.5576723523
 70
        32
  0
VERTEX
  5
1F9
100
AcDbEntity
  8
CK_LEVEL_1
  6
CONTINUOUS
 62
         5
100
AcDbVertex
100
AcDb3dPolylineVertex
 10
139.4387662678
 20
-22.9835491884
 30
-190.5607324984
 70
        32
  0
VERTEX
  5
1FB
100
AcDbEntity
  8
CK_LEVEL_1
  6
CONTINUOUS
 62
         5
100
AcDbVertex
100
AcDb3dPolylineVertex
 10
139.4832393195
 20
-23.0061885658
 30
-190.56389356
 70
        32
  0
VERTEX
  5
1FD
100
AcDbEntity
  8
CK_LEVEL_1
  6
CONTINUOUS
 62
         5
100
AcDbVertex
100
AcDb3dPolylineVertex
 10
139.5271447428
 20
-23.0297708469
 30
-190.5671475366
 70
        32
  0
VERTEX
  5
1FF
100
AcDbEntity
  8
CK_LEVEL_1
  6
CONTINUOUS
 62
         5
100
AcDbVertex
100
AcDb3dPolylineVertex
 10
139.5704474075
 20
-23.0542714679
 30
-190.5704864273
 70
        32
  0
VERTEX
  5
201
100
AcDbEntity
  8
CK_LEVEL_1
  6
CONTINUOUS
 62
         5
100
AcDbVertex
100
AcDb3dPolylineVertex
 10
139.6131121833
 20
-23.0796658648
 30
-190.5739022314
 70
        32
  0
VERTEX
  5
203
100
AcDbEntity
  8
CK_LEVEL_1
  6
CONTINUOUS
 62
         5
100
AcDbVertex
100
AcDb3dPolylineVertex
 10
139.6551039399
 20
-23.1059294737
 30
-190.5773869482
 70
        32
  0
VERTEX
  5
205
100
AcDbEntity
  8
CK_LEVEL_1
  6
CONTINUOUS
 62
         5
100
AcDbVertex
100
AcDb3dPolylineVertex
 10
139.6963875469
 20
-23.1330377305
 30
-190.580932577
 70
        32
  0
VERTEX
  5
207
100
AcDbEntity
  8
CK_LEVEL_1
  6
CONTINUOUS
 62
         5
100
AcDbVertex
100
AcDb3dPolylineVertex
 10
139.7369295246
 20
-23.1609637449
 30
-190.5845301368
 70
        32
  0
VERTEX
  5
209
100
AcDbEntity
  8
CK_LEVEL_1
  6
CONTINUOUS
 62
         5
100
AcDbVertex
100
AcDb3dPolylineVertex
 10
139.7767037996
 20
-23.1896697006
 30
-190.5881699844
 70
        32
  0
VERTEX
  5
20B
100
AcDbEntity
  8
CK_LEVEL_1
  6
CONTINUOUS
 62
         5
100
AcDbVertex
100
AcDb3dPolylineVertex
 10
139.8156863519
 20
-23.2191146453
 30
-190.5918431249
 70
        32
  0
VERTEX
  5
20D
100
AcDbEntity
  8
CK_LEVEL_1
  6
CONTINUOUS
 62
         5
100
AcDbVertex
100
AcDb3dPolylineVertex
 10
139.8538531613
 20
-23.2492576264
 30
-190.5955405636
 70
        32
  0
VERTEX
  5
20F
100
AcDbEntity
  8
CK_LEVEL_1
  6
CONTINUOUS
 62
         5
100
AcDbVertex
100
AcDb3dPolylineVertex
 10
139.8911802075
 20
-23.2800576914
 30
-190.5992533057
 70
        32
  0
VERTEX
  5
211
100
AcDbEntity
  8
CK_LEVEL_1
  6
CONTINUOUS
 62
         5
100
AcDbVertex
100
AcDb3dPolylineVertex
 10
139.9276434703
 20
-23.311473888
 30
-190.6029723566
 70
        32
  0
VERTEX
  5
213
100
AcDbEntity
  8
CK_LEVEL_1
  6
CONTINUOUS
 62
         5
100
AcDbVertex
100
AcDb3dPolylineVertex
 10
139.9632189295
 20
-23.3434652637
 30
-190.6066887214
 70
        32
  0
VERTEX
  5
215
100
AcDbEntity
  8
CK_LEVEL_1
  6
CONTINUOUS
 62
         5
100
AcDbVertex
100
AcDb3dPolylineVertex
 10
139.9978825649
 20
-23.3759908659
 30
-190.6103934055
 70
        32
  0
VERTEX
  5
217
100
AcDbEntity
  8
CK_LEVEL_1
  6
CONTINUOUS
 62
         5
100
AcDbVertex
100
AcDb3dPolylineVertex
 10
140.0316103563
 20
-23.4090097423
 30
-190.6140774141
 70
        32
  0
VERTEX
  5
219
100
AcDbEntity
  8
CK_LEVEL_1
  6
CONTINUOUS
 62
         5
100
AcDbVertex
100
AcDb3dPolylineVertex
 10
140.064628632
 20
-23.4427369087
 30
-190.617760365
 70
        32
  0
VERTEX
  5
21B
100
AcDbEntity
  8
CK_LEVEL_1
  6
CONTINUOUS
 62
         5
100
AcDbVertex
100
AcDb3dPolylineVertex
 10
140.0971537562
 20
-23.4773999997
 30
-190.6214620482
 70
        32
  0
VERTEX
  5
21D
100
AcDbEntity
  8
CK_LEVEL_1
  6
CONTINUOUS
 62
         5
100
AcDbVertex
100
AcDb3dPolylineVertex
 10
140.1291447671
 20
-23.5129749965
 30
-190.625173507
 70
        32
  0
VERTEX
  5
21F
100
AcDbEntity
  8
CK_LEVEL_1
  6
CONTINUOUS
 62
         5
100
AcDbVertex
100
AcDb3dPolylineVertex
 10
140.1605607033
 20
-23.54943788
 30
-190.6288857847
 70
        32
  0
VERTEX
  5
221
100
AcDbEntity
  8
CK_LEVEL_1
  6
CONTINUOUS
 62
         5
100
AcDbVertex
100
AcDb3dPolylineVertex
 10
140.1913606031
 20
-23.5867646312
 30
-190.6325899247
 70
        32
  0
VERTEX
  5
223
100
AcDbEntity
  8
CK_LEVEL_1
  6
CONTINUOUS
 62
         5
100
AcDbVertex
100
AcDb3dPolylineVertex
 10
140.221503505
 20
-23.6249312311
 30
-190.6362769703
 70
        32
  0
VERTEX
  5
225
100
AcDbEntity
  8
CK_LEVEL_1
  6
CONTINUOUS
 62
         5
100
AcDbVertex
100
AcDb3dPolylineVertex
 10
140.2509484473
 20
-23.6639136607
 30
-190.6399379649
 70
        32
  0
VERTEX
  5
227
100
AcDbEntity
  8
CK_LEVEL_1
  6
CONTINUOUS
 62
         5
100
AcDbVertex
100
AcDb3dPolylineVertex
 10
140.2796544684
 20
-23.7036879011
 30
-190.6435639516
 70
        32
  0
VERTEX
  5
229
100
AcDbEntity
  8
CK_LEVEL_1
  6
CONTINUOUS
 62
         5
100
AcDbVertex
100
AcDb3dPolylineVertex
 10
140.3075806069
 20
-23.7442299332
 30
-190.6471459739
 70
        32
  0
VERTEX
  5
22B
100
AcDbEntity
  8
CK_LEVEL_1
  6
CONTINUOUS
 62
         5
100
AcDbVertex
100
AcDb3dPolylineVertex
 10
140.3346890337
 20
-23.7855136832
 30
-190.6506744732
 70
        32
  0
VERTEX
  5
22D
100
AcDbEntity
  8
CK_LEVEL_1
  6
CONTINUOUS
 62
         5
100
AcDbVertex
100
AcDb3dPolylineVertex
 10
140.3609528462
 20
-23.8275056628
 30
-190.6541406421
 70
        32
  0
VERTEX
  5
22F
100
AcDbEntity
  8
CK_LEVEL_1
  6
CONTINUOUS
 62
         5
100
AcDbVertex
100
AcDb3dPolylineVertex
 10
140.3863474721
 20
-23.8701707311
 30
-190.6575366505
 70
        32
  0
VERTEX
  5
231
100
AcDbEntity
  8
CK_LEVEL_1
  6
CONTINUOUS
 62
         5
100
AcDbVertex
100
AcDb3dPolylineVertex
 10
140.410848339
 20
-23.9134737475
 30
-190.6608546686
 70
        32
  0
VERTEX
  5
233
100
AcDbEntity
  8
CK_LEVEL_1
  6
CONTINUOUS
 62
         5
100
AcDbVertex
100
AcDb3dPolylineVertex
 10
140.4344308747
 20
-23.957379571
 30
-190.6640868662
 70
        32
  0
VERTEX
  5
235
100
AcDbEntity
  8
CK_LEVEL_1
  6
CONTINUOUS
 62
         5
100
AcDbVertex
100
AcDb3dPolylineVertex
 10
140.4570705067
 20
-24.0018530611
 30
-190.6672254134
 70
        32
  0
VERTEX
  5
237
100
AcDbEntity
  8
CK_LEVEL_1
  6
CONTINUOUS
 62
         5
100
AcDbVertex
100
AcDb3dPolylineVertex
 10
140.4787426629
 20
-24.0468590769
 30
-190.6702624801
 70
        32
  0
VERTEX
  5
239
100
AcDbEntity
  8
CK_LEVEL_1
  6
CONTINUOUS
 62
         5
100
AcDbVertex
100
AcDb3dPolylineVertex
 10
140.4994227707
 20
-24.0923624776
 30
-190.6731902364
 70
        32
  0
VERTEX
  5
23B
100
AcDbEntity
  8
CK_LEVEL_1
  6
CONTINUOUS
 62
         5
100
AcDbVertex
100
AcDb3dPolylineVertex
 10
140.5190862579
 20
-24.1383281225
 30
-190.6760008523
 70
        32
  0
VERTEX
  5
23D
100
AcDbEntity
  8
CK_LEVEL_1
  6
CONTINUOUS
 62
         5
100
AcDbVertex
100
AcDb3dPolylineVertex
 10
140.537714681
 20
-24.1847280195
 30
-190.6786870295
 70
        32
  0
VERTEX
  5
23F
100
AcDbEntity
  8
CK_LEVEL_1
  6
CONTINUOUS
 62
         5
100
AcDbVertex
100
AcDb3dPolylineVertex
 10
140.555300573
 20
-24.2315294334
 30
-190.6812438057
 70
        32
  0
VERTEX
  5
241
100
AcDbEntity
  8
CK_LEVEL_1
  6
CONTINUOUS
 62
         5
100
AcDbVertex
100
AcDb3dPolylineVertex
 10
140.5718358265
 20
-24.278690109
 30
-190.6836668546
 70
        32
  0
VERTEX
  5
243
100
AcDbEntity
  8
CK_LEVEL_1
  6
CONTINUOUS
 62
         5
100
AcDbVertex
100
AcDb3dPolylineVertex
 10
140.5873123341
 20
-24.3261677911
 30
-190.6859518503
 70
        32
  0
VERTEX
  5
245
100
AcDbEntity
  8
CK_LEVEL_1
  6
CONTINUOUS
 62
         5
100
AcDbVertex
100
AcDb3dPolylineVertex
 10
140.6017219885
 20
-24.3739202245
 30
-190.6880944663
 70
        32
  0
VERTEX
  5
247
100
AcDbEntity
  8
CK_LEVEL_1
  6
CONTINUOUS
 62
         5
100
AcDbVertex
100
AcDb3dPolylineVertex
 10
140.6150566821
 20
-24.4219051538
 30
-190.6900903766
 70
        32
  0
VERTEX
  5
249
100
AcDbEntity
  8
CK_LEVEL_1
  6
CONTINUOUS
 62
         5
100
AcDbVertex
100
AcDb3dPolylineVertex
 10
140.6273083076
 20
-24.4700803239
 30
-190.6919352549
 70
        32
  0
VERTEX
  5
24B
100
AcDbEntity
  8
CK_LEVEL_1
  6
CONTINUOUS
 62
         5
100
AcDbVertex
100
AcDb3dPolylineVertex
 10
140.6384687576
 20
-24.5184034796
 30
-190.6936247751
 70
        32
  0
VERTEX
  5
24D
100
AcDbEntity
  8
CK_LEVEL_1
  6
CONTINUOUS
 62
         5
100
AcDbVertex
100
AcDb3dPolylineVertex
 10
140.6485299248
 20
-24.5668323656
 30
-190.6951546109
 70
        32
  0
VERTEX
  5
24F
100
AcDbEntity
  8
CK_LEVEL_1
  6
CONTINUOUS
 62
         5
100
AcDbVertex
100
AcDb3dPolylineVertex
 10
140.6574864907
 20
-24.6153241603
 30
-190.6965210794
 70
        32
  0
VERTEX
  5
251
100
AcDbEntity
  8
CK_LEVEL_1
  6
CONTINUOUS
 62
         5
100
AcDbVertex
100
AcDb3dPolylineVertex
 10
140.6653462184
 20
-24.663833374
 30
-190.6977238959
 70
        32
  0
VERTEX
  5
253
100
AcDbEntity
  8
CK_LEVEL_1
  6
CONTINUOUS
 62
         5
100
AcDbVertex
100
AcDb3dPolylineVertex
 10
140.672120623
 20
-24.7123137497
 30
-190.6987638325
 70
        32
  0
VERTEX
  5
255
100
AcDbEntity
  8
CK_LEVEL_1
  6
CONTINUOUS
 62
         5
100
AcDbVertex
100
AcDb3dPolylineVertex
 10
140.6778212194
 20
-24.76071903
 30
-190.6996416611
 70
        32
  0
VERTEX
  5
257
100
AcDbEntity
  8
CK_LEVEL_1
  6
CONTINUOUS
 62
         5
100
AcDbVertex
100
AcDb3dPolylineVertex
 10
140.6824595223
 20
-24.8090029578
 30
-190.7003581535
 70
        32
  0
VERTEX
  5
259
100
AcDbEntity
  8
CK_LEVEL_1
  6
CONTINUOUS
 62
         5
100
AcDbVertex
100
AcDb3dPolylineVertex
 10
140.6860470468
 20
-24.8571192759
 30
-190.7009140817
 70
        32
  0
VERTEX
  5
25B
100
AcDbEntity
  8
CK_LEVEL_1
  6
CONTINUOUS
 62
         5
100
AcDbVertex
100
AcDb3dPolylineVertex
 10
140.6885953077
 20
-24.9050217271
 30
-190.7013102175
 70
        32
  0
VERTEX
  5
25D
100
AcDbEntity
  8
CK_LEVEL_1
  6
CONTINUOUS
 62
         5
100
AcDbVertex
100
AcDb3dPolylineVertex
 10
140.69011582
 20
-24.9526640542
 30
-190.701547333
 70
        32
  0
VERTEX
  5
25F
100
AcDbEntity
  8
CK_LEVEL_1
  6
CONTINUOUS
 62
         5
100
AcDbVertex
100
AcDb3dPolylineVertex
 10
140.6906200986
 20
-25.0
 30
-190.7016261999
 70
        32
  0
VERTEX
  5
261
100
AcDbEntity
  8
CK_LEVEL_1
  6
CONTINUOUS
 62
         5
100
AcDbVertex
100
AcDb3dPolylineVertex
 10
140.69011582
 20
-25.0473359458
 30
-190.701547333
 70
        32
  0
VERTEX
  5
263
100
AcDbEntity
  8
CK_LEVEL_1
  6
CONTINUOUS
 62
         5
100
AcDbVertex
100
AcDb3dPolylineVertex
 10
140.6885953077
 20
-25.0949782729
 30
-190.7013102175
 70
        32
  0
VERTEX
  5
265
100
AcDbEntity
  8
CK_LEVEL_1
  6
CONTINUOUS
 62
         5
100
AcDbVertex
100
AcDb3dPolylineVertex
 10
140.6860470468
 20
-25.1428807241
 30
-190.7009140817
 70
        32
  0
VERTEX
  5
267
100
AcDbEntity
  8
CK_LEVEL_1
  6
CONTINUOUS
 62
         5
100
AcDbVertex
100
AcDb3dPolylineVertex
 10
140.6824595223
 20
-25.1909970422
 30
-190.7003581535
 70
        32
  0
VERTEX
  5
269
100
AcDbEntity
  8
CK_LEVEL_1
  6
CONTINUOUS
 62
         5
100
AcDbVertex
100
AcDb3dPolylineVertex
 10
140.6778212194
 20
-25.23928097
 30
-190.6996416611
 70
        32
  0
VERTEX
  5
26B
100
AcDbEntity
  8
CK_LEVEL_1
  6
CONTINUOUS
 62
         5
100
AcDbVertex
100
AcDb3dPolylineVertex
 10
140.672120623
 20
-25.2876862503
 30
-190.6987638325
 70
        32
  0
VERTEX
  5
26D
100
AcDbEntity
  8
CK_LEVEL_1
  6
CONTINUOUS
 62
         5
100
AcDbVertex
100
AcDb3dPolylineVertex
 10
140.6653462184
 20
-25.336166626
 30
-190.6977238959
 70
        32
  0
VERTEX
  5
26F
100
AcDbEntity
  8
CK_LEVEL_1
  6
CONTINUOUS
 62
         5
100
AcDbVertex
100
AcDb3dPolylineVertex
 10
140.6574864907
 20
-25.3846758397
 30
-190.6965210794
 70
        32
  0
VERTEX
  5
271
100
AcDbEntity
  8
CK_LEVEL_1
  6
CONTINUOUS
 62
         5
100
AcDbVertex
100
AcDb3dPolylineVertex
 10
140.6485299248
 20
-25.4331676344
 30
-190.6951546109
 70
        32
  0
VERTEX
  5
273
100
AcDbEntity
  8
CK_LEVEL_1
  6
CONTINUOUS
 62
         5
100
AcDbVertex
100
AcDb3dPolylineVertex
 10
140.6384687576
 20
-25.4815965204
 30
-190.6936247751
 70
        32
  0
VERTEX
  5
275
100
AcDbEntity
  8
CK_LEVEL_1
  6
CONTINUOUS
 62
         5
100
AcDbVertex
100
AcDb3dPolylineVertex
 10
140.6273083076
 20
-25.5299196761
 30
-190.6919352549
 70
        32
  0
VERTEX
  5
277
100
AcDbEntity
  8
CK_LEVEL_1
  6
CONTINUOUS
 62
         5
100
AcDbVertex
100
AcDb3dPolylineVertex
 10
140.6150566821
 20
-25.5780948462
 30
-190.6900903766
 70
        32
  0
VERTEX
  5
279
100
AcDbEntity
  8
CK_LEVEL_1
  6
CONTINUOUS
 62
         5
100
AcDbVertex
100
AcDb3dPolylineVertex
 10
140.6017219885
 20
-25.6260797755
 30
-190.6880944663
 70
        32
  0
VERTEX
  5
27B
100
AcDbEntity
  8
CK_LEVEL_1
  6
CONTINUOUS
 62
         5
100
AcDbVertex
100
AcDb3dPolylineVertex
 10
140.5873123341
 20
-25.6738322089
 30
-190.6859518503
 70
        32
  0
VERTEX
  5
27D
100
AcDbEntity
  8
CK_LEVEL_1
  6
CONTINUOUS
 62
         5
100
AcDbVertex
100
AcDb3dPolylineVertex
 10
140.5718358265
 20
-25.721309891
 30
-190.6836668546
 70
        32
  0
VERTEX
  5
27F
100
AcDbEntity
  8
CK_LEVEL_1
  6
CONTINUOUS
 62
         5
100
AcDbVertex
100
AcDb3dPolylineVertex
 10
140.555300573
 20
-25.7684705666
 30
-190.6812438057
 70
        32
  0
VERTEX
  5
281
100
AcDbEntity
  8
CK_LEVEL_1
  6
CONTINUOUS
 62
         5
100
AcDbVertex
100
AcDb3dPolylineVertex
 10
140.537714681
 20
-25.8152719805
 30
-190.6786870295
 70
        32
  0
VERTEX
  5
283
100
AcDbEntity
  8
CK_LEVEL_1
  6
CONTINUOUS
 62
         5
100
AcDbVertex
100
AcDb3dPolylineVertex
 10
140.5190862579
 20
-25.8616718775
 30
-190.6760008523
 70
        32
  0
VERTEX
  5
285
100
AcDbEntity
  8
CK_LEVEL_1
  6
CONTINUOUS
 62
         5
100
AcDbVertex
100
AcDb3dPolylineVertex
 10
140.4994227707
 20
-25.9076375224
 30
-190.6731902364
 70
        32
  0
VERTEX
  5
287
100
AcDbEntity
  8
CK_LEVEL_1
  6
CONTINUOUS
 62
         5
100
AcDbVertex
100
AcDb3dPolylineVertex
 10
140.4787426629
 20
-25.9531409231
 30
-190.6702624801
 70
        32
  0
VERTEX
  5
289
100
AcDbEntity
  8
CK_LEVEL_1
  6
CONTINUOUS
 62
         5
100
AcDbVertex
100
AcDb3dPolylineVertex
 10
140.4570705067
 20
-25.9981469389
 30
-190.6672254134
 70
        32
  0
VERTEX
  5
28B
100
AcDbEntity
  8
CK_LEVEL_1
  6
CONTINUOUS
 62
         5
100
AcDbVertex
100
AcDb3dPolylineVertex
 10
140.4344308747
 20
-26.042620429
 30
-190.6640868662
 70
        32
  0
VERTEX
  5
28D
100
AcDbEntity
  8
CK_LEVEL_1
  6
CONTINUOUS
 62
         5
100
AcDbVertex
100
AcDb3dPolylineVertex
 10
140.410848339
 20
-26.0865262525
 30
-190.6608546686
 70
        32
  0
VERTEX
  5
28F
100
AcDbEntity
  8
CK_LEVEL_1
  6
CONTINUOUS
 62
         5
100
AcDbVertex
100
AcDb3dPolylineVertex
 10
140.3863474721
 20
-26.1298292689
 30
-190.6575366505
 70
        32
  0
VERTEX
  5
291
100
AcDbEntity
  8
CK_LEVEL_1
  6
CONTINUOUS
 62
         5
100
AcDbVertex
100
AcDb3dPolylineVertex
 10
140.3609528462
 20
-26.1724943372
 30
-190.6541406421
 70
        32
  0
VERTEX
  5
293
100
AcDbEntity
  8
CK_LEVEL_1
  6
CONTINUOUS
 62
         5
100
AcDbVertex
100
AcDb3dPolylineVertex
 10
140.3346890337
 20
-26.2144863168
 30
-190.6506744732
 70
        32
  0
VERTEX
  5
295
100
AcDbEntity
  8
CK_LEVEL_1
  6
CONTINUOUS
 62
         5
100
AcDbVertex
100
AcDb3dPolylineVertex
 10
140.3075806069
 20
-26.2557700668
 30
-190.6471459739
 70
        32
  0
VERTEX
  5
297
100
AcDbEntity
  8
CK_LEVEL_1
  6
CONTINUOUS
 62
         5
100
AcDbVertex
100
AcDb3dPolylineVertex
 10
140.2796544684
 20
-26.2963120989
 30
-190.6435639516
 70
        32
  0
VERTEX
  5
299
100
AcDbEntity
  8
CK_LEVEL_1
  6
CONTINUOUS
 62
         5
100
AcDbVertex
100
AcDb3dPolylineVertex
 10
140.2509484473
 20
-26.3360863393
 30
-190.6399379649
 70
        32
  0
VERTEX
  5
29B
100
AcDbEntity
  8
CK_LEVEL_1
  6
CONTINUOUS
 62
         5
100
AcDbVertex
100
AcDb3dPolylineVertex
 10
140.221503505
 20
-26.3750687689
 30
-190.6362769703
 70
        32
  0
VERTEX
  5
29D
100
AcDbEntity
  8
CK_LEVEL_1
  6
CONTINUOUS
 62
         5
100
AcDbVertex
100
AcDb3dPolylineVertex
 10
140.1913606031
 20
-26.4132353688
 30
-190.6325899247
 70
        32
  0
VERTEX
  5
29F
100
AcDbEntity
  8
CK_LEVEL_1
  6
CONTINUOUS
 62
         5
100
AcDbVertex
100
AcDb3dPolylineVertex
 10
140.1605607033
 20
-26.45056212
 30
-190.6288857847
 70
        32
  0
VERTEX
  5
2A1
100
AcDbEntity
  8
CK_LEVEL_1
  6
CONTINUOUS
 62
         5
100
AcDbVertex
100
AcDb3dPolylineVertex
 10
140.1291447671
 20
-26.4870250035
 30
-190.625173507
 70
        32
  0
VERTEX
  5
2A3
100
AcDbEntity
  8
CK_LEVEL_1
  6
CONTINUOUS
 62
         5
100
AcDbVertex
100
AcDb3dPolylineVertex
 10
140.0971537562
 20
-26.5226000003
 30
-190.6214620482
 70
        32
  0
VERTEX
  5
2A5
100
AcDbEntity
  8
CK_LEVEL_1
  6
CONTINUOUS
 62
         5
100
AcDbVertex
100
AcDb3dPolylineVertex
 10
140.064628632
 20
-26.5572630913
 30
-190.617760365
 70
        32
  0
VERTEX
  5
2A7
100
AcDbEntity
  8
CK_LEVEL_1
  6
CONTINUOUS
 62
         5
100
AcDbVertex
100
AcDb3dPolylineVertex
 10
140.0316103563
 20
-26.5909902577
 30
-190.6140774141
 70
        32
  0
VERTEX
  5
2A9
100
AcDbEntity
  8
CK_LEVEL_1
  6
CONTINUOUS
 62
         5
100
AcDbVertex
100
AcDb3dPolylineVertex
 10
139.9978825649
 20
-26.6240091341
 30
-190.6103934055
 70
        32
  0
VERTEX
  5
2AB
100
AcDbEntity
  8
CK_LEVEL_1
  6
CONTINUOUS
 62
         5
100
AcDbVertex
100
AcDb3dPolylineVertex
 10
139.9632189295
 20
-26.6565347363
 30
-190.6066887214
 70
        32
  0
VERTEX
  5
2AD
100
AcDbEntity
  8
CK_LEVEL_1
  6
CONTINUOUS
 62
         5
100
AcDbVertex
100
AcDb3dPolylineVertex
 10
139.9276434703
 20
-26.688526112
 30
-190.6029723566
 70
        32
  0
VERTEX
  5
2AF
100
AcDbEntity
  8
CK_LEVEL_1
  6
CONTINUOUS
 62
         5
100
AcDbVertex
100
AcDb3dPolylineVertex
 10
139.8911802075
 20
-26.7199423086
 30
-190.5992533057
 70
        32
  0
VERTEX
  5
2B1
100
AcDbEntity
  8
CK_LEVEL_1
  6
CONTINUOUS
 62
         5
100
AcDbVertex
100
AcDb3dPolylineVertex
 10
139.8538531613
 20
-26.7507423736
 30
-190.5955405636
 70
        32
  0
VERTEX
  5
2B3
100
AcDbEntity
  8
CK_LEVEL_1
  6
CONTINUOUS
 62
         5
100
AcDbVertex
100
AcDb3dPolylineVertex
 10
139.8156863519
 20
-26.7808853547
 30
-190.5918431249
 70
        32
  0
VERTEX
  5
2B5
100
AcDbEntity
  8
CK_LEVEL_1
  6
CONTINUOUS
 62
         5
100
AcDbVertex
100
AcDb3dPolylineVertex
 10
139.7767037996
 20
-26.8103302994
 30
-190.5881699844
 70
        32
  0
VERTEX
  5
2B7
100
AcDbEntity
  8
CK_LEVEL_1
  6
CONTINUOUS
 62
         5
100
AcDbVertex
100
AcDb3dPolylineVertex
 10
139.7369295246
 20
-26.8390362551
 30
-190.5845301368
 70
        32
  0
VERTEX
  5
2B9
100
AcDbEntity
  8
CK_LEVEL_1
  6
CONTINUOUS
 62
         5
100
AcDbVertex
100
AcDb3dPolylineVertex
 10
139.6963875469
 20
-26.8669622695
 30
-190.580932577
 70
        32
  0
VERTEX
  5
2BB
100
AcDbEntity
  8
CK_LEVEL_1
  6
CONTINUOUS
 62
         5
100
AcDbVertex
100
AcDb3dPolylineVertex
 10
139.6551039399
 20
-26.8940705263
 30
-190.5773869482
 70
        32
  0
VERTEX
  5
2BD
100
AcDbEntity
  8
CK_LEVEL_1
  6
CONTINUOUS
 62
         5
100
AcDbVertex
100
AcDb3dPolylineVertex
 10
139.6131121833
 20
-26.9203341352
 30
-190.5739022314
 70
        32
  0
VERTEX
  5
2BF
100
AcDbEntity
  8
CK_LEVEL_1
  6
CONTINUOUS
 62
         5
100
AcDbVertex
100
AcDb3dPolylineVertex
 10
139.5704474075
 20
-26.9457285321
 30
-190.5704864273
 70
        32
  0
VERTEX
  5
2C1
100
AcDbEntity
  8
CK_LEVEL_1
  6
CONTINUOUS
 62
         5
100
AcDbVertex
100
AcDb3dPolylineVertex
 10
139.5271447428
 20
-26.9702291531
 30
-190.5671475366
 70
        32
  0
VERTEX
  5
2C3
100
AcDbEntity
  8
CK_LEVEL_1
  6
CONTINUOUS
 62
         5
100
AcDbVertex
100
AcDb3dPolylineVertex
 10
139.4832393195
 20
-26.9938114342
 30
-190.56389356
 70
        32
  0
VERTEX
  5
2C5
100
AcDbEntity
  8
CK_LEVEL_1
  6
CONTINUOUS
 62
         5
100
AcDbVertex
100
AcDb3dPolylineVertex
 10
139.4387662678
 20
-27.0164508116
 30
-190.5607324984
 70
        32
  0
VERTEX
  5
2C7
100
AcDbEntity
  8
CK_LEVEL_1
  6
CONTINUOUS
 62
         5
100
AcDbVertex
100
AcDb3dPolylineVertex
 10
139.3937607182
 20
-27.0381227212
 30
-190.5576723523
 70
        32
  0
VERTEX
  5
2C9
100
AcDbEntity
  8
CK_LEVEL_1
  6
CONTINUOUS
 62
         5
100
AcDbVertex
100
AcDb3dPolylineVertex
 10
139.3482578009
 20
-27.0588025992
 30
-190.5547211227
 70
        32
  0
VERTEX
  5
2CB
100
AcDbEntity
  8
CK_LEVEL_1
  6
CONTINUOUS
 62
         5
100
AcDbVertex
100
AcDb3dPolylineVertex
 10
139.3022926462
 20
-27.0784658815
 30
-190.5518868101
 70
        32
  0
VERTEX
  5
2CD
100
AcDbEntity
  8
CK_LEVEL_1
  6
CONTINUOUS
 62
         5
100
AcDbVertex
100
AcDb3dPolylineVertex
 10
139.2558932347
 20
-27.0970941322
 30
-190.5491769267
 70
        32
  0
VERTEX
  5
2CF
100
AcDbEntity
  8
CK_LEVEL_1
  6
CONTINUOUS
 62
         5
100
AcDbVertex
100
AcDb3dPolylineVertex
 10
139.2090922906
 20
-27.1146798854
 30
-190.54659665
 70
        32
  0
VERTEX
  5
2D1
100
AcDbEntity
  8
CK_LEVEL_1
  6
CONTINUOUS
 62
         5
100
AcDbVertex
100
AcDb3dPolylineVertex
 10
139.1619320599
 20
-27.1312150324
 30
-190.5441504794
 70
        32
  0
VERTEX
  5
2D3
100
AcDbEntity
  8
CK_LEVEL_1
  6
CONTINUOUS
 62
         5
100
AcDbVertex
100
AcDb3dPolylineVertex
 10
139.1144547887
 20
-27.1466914647
 30
-190.5418429142
 70
        32
  0
VERTEX
  5
2D5
100
AcDbEntity
  8
CK_LEVEL_1
  6
CONTINUOUS
 62
         5
100
AcDbVertex
100
AcDb3dPolylineVertex
 10
139.066702723
 20
-27.1611010734
 30
-190.5396784535
 70
        32
  0
VERTEX
  5
2D7
100
AcDbEntity
  8
CK_LEVEL_1
  6
CONTINUOUS
 62
         5
100
AcDbVertex
100
AcDb3dPolylineVertex
 10
139.0187181089
 20
-27.1744357499
 30
-190.5376615967
 70
        32
  0
VERTEX
  5
2D9
100
AcDbEntity
  8
CK_LEVEL_1
  6
CONTINUOUS
 62
         5
100
AcDbVertex
100
AcDb3dPolylineVertex
 10
138.9705431924
 20
-27.1866873855
 30
-190.535796843
 70
        32
  0
VERTEX
  5
2DB
100
AcDbEntity
  8
CK_LEVEL_1
  6
CONTINUOUS
 62
         5
100
AcDbVertex
100
AcDb3dPolylineVertex
 10
138.9222202196
 20
-27.1978478717
 30
-190.5340886917
 70
        32
  0
VERTEX
  5
2DD
100
AcDbEntity
  8
CK_LEVEL_1
  6
CONTINUOUS
 62
         5
100
AcDbVertex
100
AcDb3dPolylineVertex
 10
138.8737914365
 20
-27.2079090996
 30
-190.532541642
 70
        32
  0
VERTEX
  5
2DF
100
AcDbEntity
  8
CK_LEVEL_1
  6
CONTINUOUS
 62
         5
100
AcDbVertex
100
AcDb3dPolylineVertex
 10
138.8252996552
 20
-27.2168657478
 30
-190.5311595546
 70
        32
  0
VERTEX
  5
2E1
100
AcDbEntity
  8
CK_LEVEL_1
  6
CONTINUOUS
 62
         5
100
AcDbVertex
100
AcDb3dPolylineVertex
 10
138.7767903591
 20
-27.2247255729
 30
-190.5299428031
 70
        32
  0
VERTEX
  5
2E3
100
AcDbEntity
  8
CK_LEVEL_1
  6
CONTINUOUS
 62
         5
100
AcDbVertex
100
AcDb3dPolylineVertex
 10
138.7283098008
 20
-27.2315000831
 30
-190.5288906566
 70
        32
  0
VERTEX
  5
2E5
100
AcDbEntity
  8
CK_LEVEL_1
  6
CONTINUOUS
 62
         5
100
AcDbVertex
100
AcDb3dPolylineVertex
 10
138.6799042332
 20
-27.2372007869
 30
-190.5280023842
 70
        32
  0
VERTEX
  5
2E7
100
AcDbEntity
  8
CK_LEVEL_1
  6
CONTINUOUS
 62
         5
100
AcDbVertex
100
AcDb3dPolylineVertex
 10
138.6316199088
 20
-27.2418391925
 30
-190.527277255
 70
        32
  0
VERTEX
  5
2E9
100
AcDbEntity
  8
CK_LEVEL_1
  6
CONTINUOUS
 62
         5
100
AcDbVertex
100
AcDb3dPolylineVertex
 10
138.5835030804
 20
-27.2454268083
 30
-190.526714538
 70
        32
  0
VERTEX
  5
2EB
100
AcDbEntity
  8
CK_LEVEL_1
  6
CONTINUOUS
 62
         5
100
AcDbVertex
100
AcDb3dPolylineVertex
 10
138.5356000008
 20
-27.2479751426
 30
-190.5263135022
 70
        32
  0
VERTEX
  5
2ED
100
AcDbEntity
  8
CK_LEVEL_1
  6
CONTINUOUS
 62
         5
100
AcDbVertex
100
AcDb3dPolylineVertex
 10
138.4879569226
 20
-27.2494957037
 30
-190.5260734168
 70
        32
  0
VERTEX
  5
2EF
100
AcDbEntity
  8
CK_LEVEL_1
  6
CONTINUOUS
 62
         5
100
AcDbVertex
100
AcDb3dPolylineVertex
 10
138.4406200986
 20
-27.25
 30
-190.5259935507
 70
        32
  0
SEQEND
  5
2F1
100
AcDbEntity
  8
CK_LEVEL_1
  6
CONTINUOUS
 62
         5
  0
POLYLINE
  5
2F3
100
AcDbEntity
  8
CK_LEVEL_1
  6
CONTINUOUS
 62
         5
100
AcDb3dPolyline
 66
         1
 10
0.0
 20
0.0
 30
-192.5474972382
 70
         8
  0
VERTEX
  5
2F5
100
AcDbEntity
  8
CK_LEVEL_1
  6
CONTINUOUS
 62
         5
100
AcDbVertex
100
AcDb3dPolylineVertex
 10
138.4406200986
 20
-27.25
 30
-192.5474972382
 70
        32
  0
VERTEX
  5
2F7
100
AcDbEntity
  8
CK_LEVEL_1
  6
CONTINUOUS
 62
         5
100
AcDbVertex
100
AcDb3dPolylineVertex
 10
138.4879384686
 20
-27.2494960978
 30
-192.5475671696
 70
        32
  0
VERTEX
  5
2F9
100
AcDbEntity
  8
CK_LEVEL_1
  6
CONTINUOUS
 62
         5
100
AcDbVertex
100
AcDb3dPolylineVertex
 10
138.5355642536
 20
-27.2479766706
 30
-192.5477774012
 70
        32
  0
VERTEX
  5
2FB
100
AcDbEntity
  8
CK_LEVEL_1
  6
CONTINUOUS
 62
         5
100
AcDbVertex
100
AcDb3dPolylineVertex
 10
138.5834512179
 20
-27.2454301377
 30
-192.5481285896
 70
        32
  0
VERTEX
  5
2FD
100
AcDbEntity
  8
CK_LEVEL_1
  6
CONTINUOUS
 62
         5
100
AcDbVertex
100
AcDb3dPolylineVertex
 10
138.631553126
 20
-27.2418449185
 30
-192.5486213912
 70
        32
  0
VERTEX
  5
2FF
100
AcDbEntity
  8
CK_LEVEL_1
  6
CONTINUOUS
 62
         5
100
AcDbVertex
100
AcDb3dPolylineVertex
 10
138.6798237422
 20
-27.237209432
 30
-192.5492564625
 70
        32
  0
VERTEX
  5
301
100
AcDbEntity
  8
CK_LEVEL_1
  6
CONTINUOUS
 62
         5
100
AcDbVertex
100
AcDb3dPolylineVertex
 10
138.7282168309
 20
-27.2315120978
 30
-192.5500344599
 70
        32
  0
VERTEX
  5
303
100
AcDbEntity
  8
CK_LEVEL_1
  6
CONTINUOUS
 62
         5
100
AcDbVertex
100
AcDb3dPolylineVertex
 10
138.7766861564
 20
-27.2247413348
 30
-192.5509560398
 70
        32
  0
VERTEX
  5
305
100
AcDbEntity
  8
CK_LEVEL_1
  6
CONTINUOUS
 62
         5
100
AcDbVertex
100
AcDb3dPolylineVertex
 10
138.825185483
 20
-27.2168855626
 30
-192.5520218587
 70
        32
  0
VERTEX
  5
307
100
AcDbEntity
  8
CK_LEVEL_1
  6
CONTINUOUS
 62
         5
100
AcDbVertex
100
AcDb3dPolylineVertex
 10
138.8736685753
 20
-27.2079332003
 30
-192.5532325731
 70
        32
  0
VERTEX
  5
309
100
AcDbEntity
  8
CK_LEVEL_1
  6
CONTINUOUS
 62
         5
100
AcDbVertex
100
AcDb3dPolylineVertex
 10
138.9220899572
 20
-27.1978764112
 30
-192.5545878772
 70
        32
  0
VERTEX
  5
30B
100
AcDbEntity
  8
CK_LEVEL_1
  6
CONTINUOUS
 62
         5
100
AcDbVertex
100
AcDb3dPolylineVertex
 10
138.9704067986
 20
-27.1867204352
 30
-192.5560844138
 70
        32
  0
VERTEX
  5
30D
100
AcDbEntity
  8
CK_LEVEL_1
  6
CONTINUOUS
 62
         5
100
AcDbVertex
100
AcDb3dPolylineVertex
 10
139.0185768319
 20
-27.1744733061
 30
-192.5577182623
 70
        32
  0
VERTEX
  5
30F
100
AcDbEntity
  8
CK_LEVEL_1
  6
CONTINUOUS
 62
         5
100
AcDbVertex
100
AcDb3dPolylineVertex
 10
139.0665577898
 20
-27.161143058
 30
-192.5594855022
 70
        32
  0
VERTEX
  5
311
100
AcDbEntity
  8
CK_LEVEL_1
  6
CONTINUOUS
 62
         5
100
AcDbVertex
100
AcDb3dPolylineVertex
 10
139.1143074049
 20
-27.1467377248
 30
-192.561382213
 70
        32
  0
VERTEX
  5
313
100
AcDbEntity
  8
CK_LEVEL_1
  6
CONTINUOUS
 62
         5
100
AcDbVertex
100
AcDb3dPolylineVertex
 10
139.1617834098
 20
-27.1312653403
 30
-192.5634044741
 70
        32
  0
VERTEX
  5
315
100
AcDbEntity
  8
CK_LEVEL_1
  6
CONTINUOUS
 62
         5
100
AcDbVertex
100
AcDb3dPolylineVertex
 10
139.208943537
 20
-27.1147339387
 30
-192.5655483648
 70
        32
  0
VERTEX
  5
317
100
AcDbEntity
  8
CK_LEVEL_1
  6
CONTINUOUS
 62
         5
100
AcDbVertex
100
AcDb3dPolylineVertex
 10
139.2557455192
 20
-27.0971515537
 30
-192.5678099647
 70
        32
  0
VERTEX
  5
319
100
AcDbEntity
  8
CK_LEVEL_1
  6
CONTINUOUS
 62
         5
100
AcDbVertex
100
AcDb3dPolylineVertex
 10
139.302147089
 20
-27.0785262194
 30
-192.5701853533
 70
        32
  0
VERTEX
  5
31B
100
AcDbEntity
  8
CK_LEVEL_1
  6
CONTINUOUS
 62
         5
100
AcDbVertex
100
AcDb3dPolylineVertex
 10
139.3481154556
 20
-27.0588653342
 30
-192.5726700172
 70
        32
  0
VERTEX
  5
31D
100
AcDbEntity
  8
CK_LEVEL_1
  6
CONTINUOUS
 62
         5
100
AcDbVertex
100
AcDb3dPolylineVertex
 10
139.3936225385
 20
-27.0381872968
 30
-192.5752573885
 70
        32
  0
VERTEX
  5
31F
100
AcDbEntity
  8
CK_LEVEL_1
  6
CONTINUOUS
 62
         5
100
AcDbVertex
100
AcDb3dPolylineVertex
 10
139.4386331361
 20
-27.0165166418
 30
-192.5779404637
 70
        32
  0
VERTEX
  5
321
100
AcDbEntity
  8
CK_LEVEL_1
  6
CONTINUOUS
 62
         5
100
AcDbVertex
100
AcDb3dPolylineVertex
 10
139.4831120464
 20
-26.9938779035
 30
-192.5807122397
 70
        32
  0
VERTEX
  5
323
100
AcDbEntity
  8
CK_LEVEL_1
  6
CONTINUOUS
 62
         5
100
AcDbVertex
100
AcDb3dPolylineVertex
 10
139.5270240679
 20
-26.9702956166
 30
-192.5835657132
 70
        32
  0
VERTEX
  5
325
100
AcDbEntity
  8
CK_LEVEL_1
  6
CONTINUOUS
 62
         5
100
AcDbVertex
100
AcDb3dPolylineVertex
 10
139.5703339986
 20
-26.9457943155
 30
-192.5864938811
 70
        32
  0
VERTEX
  5
327
100
AcDbEntity
  8
CK_LEVEL_1
  6
CONTINUOUS
 62
         5
100
AcDbVertex
100
AcDb3dPolylineVertex
 10
139.6130066368
 20
-26.9203985346
 30
-192.58948974
 70
        32
  0
VERTEX
  5
329
100
AcDbEntity
  8
CK_LEVEL_1
  6
CONTINUOUS
 62
         5
100
AcDbVertex
100
AcDb3dPolylineVertex
 10
139.6550067807
 20
-26.8941328085
 30
-192.5925462868
 70
        32
  0
VERTEX
  5
32B
100
AcDbEntity
  8
CK_LEVEL_1
  6
CONTINUOUS
 62
         5
100
AcDbVertex
100
AcDb3dPolylineVertex
 10
139.6962992286
 20
-26.8670216717
 30
-192.5956565183
 70
        32
  0
VERTEX
  5
32D
100
AcDbEntity
  8
CK_LEVEL_1
  6
CONTINUOUS
 62
         5
100
AcDbVertex
100
AcDb3dPolylineVertex
 10
139.7368504182
 20
-26.839091998
 30
-192.5988125681
 70
        32
  0
VERTEX
  5
32F
100
AcDbEntity
  8
CK_LEVEL_1
  6
CONTINUOUS
 62
         5
100
AcDbVertex
100
AcDb3dPolylineVertex
 10
139.7766342002
 20
-26.810381616
 30
-192.6020059747
 70
        32
  0
VERTEX
  5
331
100
AcDbEntity
  8
CK_LEVEL_1
  6
CONTINUOUS
 62
         5
100
AcDbVertex
100
AcDb3dPolylineVertex
 10
139.8156264924
 20
-26.7809314916
 30
-192.6052288419
 70
        32
  0
VERTEX
  5
333
100
AcDbEntity
  8
CK_LEVEL_1
  6
CONTINUOUS
 62
         5
100
AcDbVertex
100
AcDb3dPolylineVertex
 10
139.8538032127
 20
-26.750782591
 30
-192.6084732736
 70
        32
  0
VERTEX
  5
335
100
AcDbEntity
  8
CK_LEVEL_1
  6
CONTINUOUS
 62
         5
100
AcDbVertex
100
AcDb3dPolylineVertex
 10
139.8911402787
 20
-26.7199758803
 30
-192.6117313734
 70
        32
  0
VERTEX
  5
337
100
AcDbEntity
  8
CK_LEVEL_1
  6
CONTINUOUS
 62
         5
100
AcDbVertex
100
AcDb3dPolylineVertex
 10
139.9276136083
 20
-26.6885523255
 30
-192.6149952452
 70
        32
  0
VERTEX
  5
339
100
AcDbEntity
  8
CK_LEVEL_1
  6
CONTINUOUS
 62
         5
100
AcDbVertex
100
AcDb3dPolylineVertex
 10
139.9631991193
 20
-26.6565528928
 30
-192.6182569928
 70
        32
  0
VERTEX
  5
33B
100
AcDbEntity
  8
CK_LEVEL_1
  6
CONTINUOUS
 62
         5
100
AcDbVertex
100
AcDb3dPolylineVertex
 10
139.9978727293
 20
-26.6240185481
 30
-192.6215087199
 70
        32
  0
VERTEX
  5
33D
100
AcDbEntity
  8
CK_LEVEL_1
  6
CONTINUOUS
 62
         5
100
AcDbVertex
100
AcDb3dPolylineVertex
 10
140.0316103563
 20
-26.5909902577
 30
-192.6247425303
 70
        32
  0
VERTEX
  5
33F
100
AcDbEntity
  8
CK_LEVEL_1
  6
CONTINUOUS
 62
         5
100
AcDbVertex
100
AcDb3dPolylineVertex
 10
140.0646382903
 20
-26.5572530016
 30
-192.6279756359
 70
        32
  0
VERTEX
  5
341
100
AcDbEntity
  8
CK_LEVEL_1
  6
CONTINUOUS
 62
         5
100
AcDbVertex
100
AcDb3dPolylineVertex
 10
140.0971723512
 20
-26.5225797146
 30
-192.6312253424
 70
        32
  0
VERTEX
  5
343
100
AcDbEntity
  8
CK_LEVEL_1
  6
CONTINUOUS
 62
         5
100
AcDbVertex
100
AcDb3dPolylineVertex
 10
140.1291715677
 20
-26.486994478
 30
-192.6344837793
 70
        32
  0
VERTEX
  5
345
100
AcDbEntity
  8
CK_LEVEL_1
  6
CONTINUOUS
 62
         5
100
AcDbVertex
100
AcDb3dPolylineVertex
 10
140.160594968
 20
-26.4505213733
 30
-192.6377430764
 70
        32
  0
VERTEX
  5
347
100
AcDbEntity
  8
CK_LEVEL_1
  6
CONTINUOUS
 62
         5
100
AcDbVertex
100
AcDb3dPolylineVertex
 10
140.1914015809
 20
-26.4131844822
 30
-192.6409953633
 70
        32
  0
VERTEX
  5
349
100
AcDbEntity
  8
CK_LEVEL_1
  6
CONTINUOUS
 62
         5
100
AcDbVertex
100
AcDb3dPolylineVertex
 10
140.2215504346
 20
-26.375007886
 30
-192.6442327696
 70
        32
  0
VERTEX
  5
34B
100
AcDbEntity
  8
CK_LEVEL_1
  6
CONTINUOUS
 62
         5
100
AcDbVertex
100
AcDb3dPolylineVertex
 10
140.2510005578
 20
-26.3360156663
 30
-192.6474474252
 70
        32
  0
VERTEX
  5
34D
100
AcDbEntity
  8
CK_LEVEL_1
  6
CONTINUOUS
 62
         5
100
AcDbVertex
100
AcDb3dPolylineVertex
 10
140.2797109788
 20
-26.2962319045
 30
-192.6506314595
 70
        32
  0
VERTEX
  5
34F
100
AcDbEntity
  8
CK_LEVEL_1
  6
CONTINUOUS
 62
         5
100
AcDbVertex
100
AcDb3dPolylineVertex
 10
140.3076407263
 20
-26.2556806823
 30
-192.6537770023
 70
        32
  0
VERTEX
  5
351
100
AcDbEntity
  8
CK_LEVEL_1
  6
CONTINUOUS
 62
         5
100
AcDbVertex
100
AcDb3dPolylineVertex
 10
140.3347519641
 20
-26.2143881492
 30
-192.6568756498
 70
        32
  0
VERTEX
  5
353
100
AcDbEntity
  8
CK_LEVEL_1
  6
CONTINUOUS
 62
         5
100
AcDbVertex
100
AcDb3dPolylineVertex
 10
140.3610178111
 20
-26.1723878725
 30
-192.6599196533
 70
        32
  0
VERTEX
  5
355
100
AcDbEntity
  8
CK_LEVEL_1
  6
CONTINUOUS
 62
         5
100
AcDbVertex
100
AcDb3dPolylineVertex
 10
140.3864137278
 20
-26.1297150602
 30
-192.6629021251
 70
        32
  0
VERTEX
  5
357
100
AcDbEntity
  8
CK_LEVEL_1
  6
CONTINUOUS
 62
         5
100
AcDbVertex
100
AcDb3dPolylineVertex
 10
140.4109151748
 20
-26.0864049203
 30
-192.6658161779
 70
        32
  0
VERTEX
  5
359
100
AcDbEntity
  8
CK_LEVEL_1
  6
CONTINUOUS
 62
         5
100
AcDbVertex
100
AcDb3dPolylineVertex
 10
140.4344976127
 20
-26.042492661
 30
-192.6686549239
 70
        32
  0
VERTEX
  5
35B
100
AcDbEntity
  8
CK_LEVEL_1
  6
CONTINUOUS
 62
         5
100
AcDbVertex
100
AcDb3dPolylineVertex
 10
140.4571365021
 20
-25.9980134901
 30
-192.6714114757
 70
        32
  0
VERTEX
  5
35D
100
AcDbEntity
  8
CK_LEVEL_1
  6
CONTINUOUS
 62
         5
100
AcDbVertex
100
AcDb3dPolylineVertex
 10
140.4788073035
 20
-25.9530026157
 30
-192.6740789457
 70
        32
  0
VERTEX
  5
35F
100
AcDbEntity
  8
CK_LEVEL_1
  6
CONTINUOUS
 62
         5
100
AcDbVertex
100
AcDb3dPolylineVertex
 10
140.4994854775
 20
-25.9074952458
 30
-192.6766504463
 70
        32
  0
VERTEX
  5
361
100
AcDbEntity
  8
CK_LEVEL_1
  6
CONTINUOUS
 62
         5
100
AcDbVertex
100
AcDb3dPolylineVertex
 10
140.5191464847
 20
-25.8615265884
 30
-192.6791190899
 70
        32
  0
VERTEX
  5
363
100
AcDbEntity
  8
CK_LEVEL_1
  6
CONTINUOUS
 62
         5
100
AcDbVertex
100
AcDb3dPolylineVertex
 10
140.5377719216
 20
-25.8151247308
 30
-192.681478453
 70
        32
  0
VERTEX
  5
365
100
AcDbEntity
  8
CK_LEVEL_1
  6
CONTINUOUS
 62
         5
100
AcDbVertex
100
AcDb3dPolylineVertex
 10
140.555354389
 20
-25.7683224701
 30
-192.6837241682
 70
        32
  0
VERTEX
  5
367
100
AcDbEntity
  8
CK_LEVEL_1
  6
CONTINUOUS
 62
         5
100
AcDbVertex
100
AcDb3dPolylineVertex
 10
140.5718858537
 20
-25.7211620791
 30
-192.6858524317
 70
        32
  0
VERTEX
  5
369
100
AcDbEntity
  8
CK_LEVEL_1
  6
CONTINUOUS
 62
         5
100
AcDbVertex
100
AcDb3dPolylineVertex
 10
140.5873582826
 20
-25.6736858307
 30
-192.6878594399
 70
        32
  0
VERTEX
  5
36B
100
AcDbEntity
  8
CK_LEVEL_1
  6
CONTINUOUS
 62
         5
100
AcDbVertex
100
AcDb3dPolylineVertex
 10
140.6017636425
 20
-25.6259359977
 30
-192.689741389
 70
        32
  0
VERTEX
  5
36D
100
AcDbEntity
  8
CK_LEVEL_1
  6
CONTINUOUS
 62
         5
100
AcDbVertex
100
AcDb3dPolylineVertex
 10
140.6150939004
 20
-25.5779548531
 30
-192.6914944754
 70
        32
  0
VERTEX
  5
36F
100
AcDbEntity
  8
CK_LEVEL_1
  6
CONTINUOUS
 62
         5
100
AcDbVertex
100
AcDb3dPolylineVertex
 10
140.6273410231
 20
-25.5297846696
 30
-192.6931148954
 70
        32
  0
VERTEX
  5
371
100
AcDbEntity
  8
CK_LEVEL_1
  6
CONTINUOUS
 62
         5
100
AcDbVertex
100
AcDb3dPolylineVertex
 10
140.6384969774
 20
-25.4814677202
 30
-192.6945988454
 70
        32
  0
VERTEX
  5
373
100
AcDbEntity
  8
CK_LEVEL_1
  6
CONTINUOUS
 62
         5
100
AcDbVertex
100
AcDb3dPolylineVertex
 10
140.6485537302
 20
-25.4330462776
 30
-192.6959425217
 70
        32
  0
VERTEX
  5
375
100
AcDbEntity
  8
CK_LEVEL_1
  6
CONTINUOUS
 62
         5
100
AcDbVertex
100
AcDb3dPolylineVertex
 10
140.6575060436
 20
-25.3845631778
 30
-192.6971426868
 70
        32
  0
VERTEX
  5
377
100
AcDbEntity
  8
CK_LEVEL_1
  6
CONTINUOUS
 62
         5
100
AcDbVertex
100
AcDb3dPolylineVertex
 10
140.665361758
 20
-25.3360639004
 30
-192.6981990949
 70
        32
  0
VERTEX
  5
379
100
AcDbEntity
  8
CK_LEVEL_1
  6
CONTINUOUS
 62
         5
100
AcDbVertex
100
AcDb3dPolylineVertex
 10
140.6721324582
 20
-25.2875946836
 30
-192.6991124299
 70
        32
  0
VERTEX
  5
37B
100
AcDbEntity
  8
CK_LEVEL_1
  6
CONTINUOUS
 62
         5
100
AcDbVertex
100
AcDb3dPolylineVertex
 10
140.6778297287
 20
-25.2392017658
 30
-192.6998833757
 70
        32
  0
VERTEX
  5
37D
100
AcDbEntity
  8
CK_LEVEL_1
  6
CONTINUOUS
 62
         5
100
AcDbVertex
100
AcDb3dPolylineVertex
 10
140.6824651542
 20
-25.1909313851
 30
-192.700512616
 70
        32
  0
VERTEX
  5
37F
100
AcDbEntity
  8
CK_LEVEL_1
  6
CONTINUOUS
 62
         5
100
AcDbVertex
100
AcDb3dPolylineVertex
 10
140.6860503193
 20
-25.1428297799
 30
-192.7010008347
 70
        32
  0
VERTEX
  5
381
100
AcDbEntity
  8
CK_LEVEL_1
  6
CONTINUOUS
 62
         5
100
AcDbVertex
100
AcDb3dPolylineVertex
 10
140.6885968087
 20
-25.0949431885
 30
-192.7013487157
 70
        32
  0
VERTEX
  5
383
100
AcDbEntity
  8
CK_LEVEL_1
  6
CONTINUOUS
 62
         5
100
AcDbVertex
100
AcDb3dPolylineVertex
 10
140.6901162069
 20
-25.0473178491
 30
-192.7015569429
 70
        32
  0
VERTEX
  5
385
100
AcDbEntity
  8
CK_LEVEL_1
  6
CONTINUOUS
 62
         5
100
AcDbVertex
100
AcDb3dPolylineVertex
 10
140.6906200986
 20
-25.0
 30
-192.7016261999
 70
        32
  0
VERTEX
  5
387
100
AcDbEntity
  8
CK_LEVEL_1
  6
CONTINUOUS
 62
         5
100
AcDbVertex
100
AcDb3dPolylineVertex
 10
140.6901162069
 20
-24.9526821509
 30
-192.7015569429
 70
        32
  0
VERTEX
  5
389
100
AcDbEntity
  8
CK_LEVEL_1
  6
CONTINUOUS
 62
         5
100
AcDbVertex
100
AcDb3dPolylineVertex
 10
140.6885968087
 20
-24.9050568115
 30
-192.7013487157
 70
        32
  0
VERTEX
  5
38B
100
AcDbEntity
  8
CK_LEVEL_1
  6
CONTINUOUS
 62
         5
100
AcDbVertex
100
AcDb3dPolylineVertex
 10
140.6860503193
 20
-24.8571702201
 30
-192.7010008347
 70
        32
  0
VERTEX
  5
38D
100
AcDbEntity
  8
CK_LEVEL_1
  6
CONTINUOUS
 62
         5
100
AcDbVertex
100
AcDb3dPolylineVertex
 10
140.6824651542
 20
-24.8090686149
 30
-192.700512616
 70
        32
  0
VERTEX
  5
38F
100
AcDbEntity
  8
CK_LEVEL_1
  6
CONTINUOUS
 62
         5
100
AcDbVertex
100
AcDb3dPolylineVertex
 10
140.6778297287
 20
-24.7607982342
 30
-192.6998833757
 70
        32
  0
VERTEX
  5
391
100
AcDbEntity
  8
CK_LEVEL_1
  6
CONTINUOUS
 62
         5
100
AcDbVertex
100
AcDb3dPolylineVertex
 10
140.6721324582
 20
-24.7124053164
 30
-192.6991124299
 70
        32
  0
VERTEX
  5
393
100
AcDbEntity
  8
CK_LEVEL_1
  6
CONTINUOUS
 62
         5
100
AcDbVertex
100
AcDb3dPolylineVertex
 10
140.665361758
 20
-24.6639360996
 30
-192.6981990949
 70
        32
  0
VERTEX
  5
395
100
AcDbEntity
  8
CK_LEVEL_1
  6
CONTINUOUS
 62
         5
100
AcDbVertex
100
AcDb3dPolylineVertex
 10
140.6575060436
 20
-24.6154368222
 30
-192.6971426868
 70
        32
  0
VERTEX
  5
397
100
AcDbEntity
  8
CK_LEVEL_1
  6
CONTINUOUS
 62
         5
100
AcDbVertex
100
AcDb3dPolylineVertex
 10
140.6485537302
 20
-24.5669537224
 30
-192.6959425217
 70
        32
  0
VERTEX
  5
399
100
AcDbEntity
  8
CK_LEVEL_1
  6
CONTINUOUS
 62
         5
100
AcDbVertex
100
AcDb3dPolylineVertex
 10
140.6384969774
 20
-24.5185322798
 30
-192.6945988454
 70
        32
  0
VERTEX
  5
39B
100
AcDbEntity
  8
CK_LEVEL_1
  6
CONTINUOUS
 62
         5
100
AcDbVertex
100
AcDb3dPolylineVertex
 10
140.6273410231
 20
-24.4702153304
 30
-192.6931148954
 70
        32
  0
VERTEX
  5
39D
100
AcDbEntity
  8
CK_LEVEL_1
  6
CONTINUOUS
 62
         5
100
AcDbVertex
100
AcDb3dPolylineVertex
 10
140.6150939004
 20
-24.4220451469
 30
-192.6914944754
 70
        32
  0
VERTEX
  5
39F
100
AcDbEntity
  8
CK_LEVEL_1
  6
CONTINUOUS
 62
         5
100
AcDbVertex
100
AcDb3dPolylineVertex
 10
140.6017636425
 20
-24.3740640023
 30
-192.689741389
 70
        32
  0
VERTEX
  5
3A1
100
AcDbEntity
  8
CK_LEVEL_1
  6
CONTINUOUS
 62
         5
100
AcDbVertex
100
AcDb3dPolylineVertex
 10
140.5873582826
 20
-24.3263141693
 30
-192.6878594399
 70
        32
  0
VERTEX
  5
3A3
100
AcDbEntity
  8
CK_LEVEL_1
  6
CONTINUOUS
 62
         5
100
AcDbVertex
100
AcDb3dPolylineVertex
 10
140.5718858537
 20
-24.2788379209
 30
-192.6858524317
 70
        32
  0
VERTEX
  5
3A5
100
AcDbEntity
  8
CK_LEVEL_1
  6
CONTINUOUS
 62
         5
100
AcDbVertex
100
AcDb3dPolylineVertex
 10
140.555354389
 20
-24.2316775299
 30
-192.6837241682
 70
        32
  0
VERTEX
  5
3A7
100
AcDbEntity
  8
CK_LEVEL_1
  6
CONTINUOUS
 62
         5
100
AcDbVertex
100
AcDb3dPolylineVertex
 10
140.5377719216
 20
-24.1848752692
 30
-192.681478453
 70
        32
  0
VERTEX
  5
3A9
100
AcDbEntity
  8
CK_LEVEL_1
  6
CONTINUOUS
 62
         5
100
AcDbVertex
100
AcDb3dPolylineVertex
 10
140.5191464847
 20
-24.1384734116
 30
-192.6791190899
 70
        32
  0
VERTEX
  5
3AB
100
AcDbEntity
  8
CK_LEVEL_1
  6
CONTINUOUS
 62
         5
100
AcDbVertex
100
AcDb3dPolylineVertex
 10
140.4994854775
 20
-24.0925047542
 30
-192.6766504463
 70
        32
  0
VERTEX
  5
3AD
100
AcDbEntity
  8
CK_LEVEL_1
  6
CONTINUOUS
 62
         5
100
AcDbVertex
100
AcDb3dPolylineVertex
 10
140.4788073035
 20
-24.0469973843
 30
-192.6740789457
 70
        32
  0
VERTEX
  5
3AF
100
AcDbEntity
  8
CK_LEVEL_1
  6
CONTINUOUS
 62
         5
100
AcDbVertex
100
AcDb3dPolylineVertex
 10
140.4571365021
 20
-24.0019865099
 30
-192.6714114757
 70
        32
  0
VERTEX
  5
3B1
100
AcDbEntity
  8
CK_LEVEL_1
  6
CONTINUOUS
 62
         5
100
AcDbVertex
100
AcDb3dPolylineVertex
 10
140.4344976127
 20
-23.957507339
 30
-192.6686549239
 70
        32
  0
VERTEX
  5
3B3
100
AcDbEntity
  8
CK_LEVEL_1
  6
CONTINUOUS
 62
         5
100
AcDbVertex
100
AcDb3dPolylineVertex
 10
140.4109151748
 20
-23.9135950797
 30
-192.6658161779
 70
        32
  0
VERTEX
  5
3B5
100
AcDbEntity
  8
CK_LEVEL_1
  6
CONTINUOUS
 62
         5
100
AcDbVertex
100
AcDb3dPolylineVertex
 10
140.3864137278
 20
-23.8702849398
 30
-192.6629021251
 70
        32
  0
VERTEX
  5
3B7
100
AcDbEntity
  8
CK_LEVEL_1
  6
CONTINUOUS
 62
         5
100
AcDbVertex
100
AcDb3dPolylineVertex
 10
140.3610178111
 20
-23.8276121275
 30
-192.6599196533
 70
        32
  0
VERTEX
  5
3B9
100
AcDbEntity
  8
CK_LEVEL_1
  6
CONTINUOUS
 62
         5
100
AcDbVertex
100
AcDb3dPolylineVertex
 10
140.3347519641
 20
-23.7856118508
 30
-192.6568756498
 70
        32
  0
VERTEX
  5
3BB
100
AcDbEntity
  8
CK_LEVEL_1
  6
CONTINUOUS
 62
         5
100
AcDbVertex
100
AcDb3dPolylineVertex
 10
140.3076407263
 20
-23.7443193177
 30
-192.6537770023
 70
        32
  0
VERTEX
  5
3BD
100
AcDbEntity
  8
CK_LEVEL_1
  6
CONTINUOUS
 62
         5
100
AcDbVertex
100
AcDb3dPolylineVertex
 10
140.2797109788
 20
-23.7037680955
 30
-192.6506314595
 70
        32
  0
VERTEX
  5
3BF
100
AcDbEntity
  8
CK_LEVEL_1
  6
CONTINUOUS
 62
         5
100
AcDbVertex
100
AcDb3dPolylineVertex
 10
140.2510005578
 20
-23.6639843337
 30
-192.6474474252
 70
        32
  0
VERTEX
  5
3C1
100
AcDbEntity
  8
CK_LEVEL_1
  6
CONTINUOUS
 62
         5
100
AcDbVertex
100
AcDb3dPolylineVertex
 10
140.2215504346
 20
-23.624992114
 30
-192.6442327696
 70
        32
  0
VERTEX
  5
3C3
100
AcDbEntity
  8
CK_LEVEL_1
  6
CONTINUOUS
 62
         5
100
AcDbVertex
100
AcDb3dPolylineVertex
 10
140.1914015809
 20
-23.5868155178
 30
-192.6409953633
 70
        32
  0
VERTEX
  5
3C5
100
AcDbEntity
  8
CK_LEVEL_1
  6
CONTINUOUS
 62
         5
100
AcDbVertex
100
AcDb3dPolylineVertex
 10
140.160594968
 20
-23.5494786267
 30
-192.6377430764
 70
        32
  0
VERTEX
  5
3C7
100
AcDbEntity
  8
CK_LEVEL_1
  6
CONTINUOUS
 62
         5
100
AcDbVertex
100
AcDb3dPolylineVertex
 10
140.1291715677
 20
-23.513005522
 30
-192.6344837793
 70
        32
  0
VERTEX
  5
3C9
100
AcDbEntity
  8
CK_LEVEL_1
  6
CONTINUOUS
 62
         5
100
AcDbVertex
100
AcDb3dPolylineVertex
 10
140.0971723512
 20
-23.4774202854
 30
-192.6312253424
 70
        32
  0
VERTEX
  5
3CB
100
AcDbEntity
  8
CK_LEVEL_1
  6
CONTINUOUS
 62
         5
100
AcDbVertex
100
AcDb3dPolylineVertex
 10
140.0646382903
 20
-23.4427469984
 30
-192.6279756359
 70
        32
  0
VERTEX
  5
3CD
100
AcDbEntity
  8
CK_LEVEL_1
  6
CONTINUOUS
 62
         5
100
AcDbVertex
100
AcDb3dPolylineVertex
 10
140.0316103563
 20
-23.4090097423
 30
-192.6247425303
 70
        32
  0
VERTEX
  5
3CF
100
AcDbEntity
  8
CK_LEVEL_1
  6
CONTINUOUS
 62
         5
100
AcDbVertex
100
AcDb3dPolylineVertex
 10
139.9978727293
 20
-23.3759814519
 30
-192.6215087199
 70
        32
  0
VERTEX
  5
3D1
100
AcDbEntity
  8
CK_LEVEL_1
  6
CONTINUOUS
 62
         5
100
AcDbVertex
100
AcDb3dPolylineVertex
 10
139.9631991193
 20
-23.3434471072
 30
-192.6182569928
 70
        32
  0
VERTEX
  5
3D3
100
AcDbEntity
  8
CK_LEVEL_1
  6
CONTINUOUS
 62
         5
100
AcDbVertex
100
AcDb3dPolylineVertex
 10
139.9276136083
 20
-23.3114476745
 30
-192.6149952452
 70
        32
  0
VERTEX
  5
3D5
100
AcDbEntity
  8
CK_LEVEL_1
  6
CONTINUOUS
 62
         5
100
AcDbVertex
100
AcDb3dPolylineVertex
 10
139.8911402787
 20
-23.2800241197
 30
-192.6117313734
 70
        32
  0
VERTEX
  5
3D7
100
AcDbEntity
  8
CK_LEVEL_1
  6
CONTINUOUS
 62
         5
100
AcDbVertex
100
AcDb3dPolylineVertex
 10
139.8538032127
 20
-23.249217409
 30
-192.6084732736
 70
        32
  0
VERTEX
  5
3D9
100
AcDbEntity
  8
CK_LEVEL_1
  6
CONTINUOUS
 62
         5
100
AcDbVertex
100
AcDb3dPolylineVertex
 10
139.8156264924
 20
-23.2190685084
 30
-192.6052288419
 70
        32
  0
VERTEX
  5
3DB
100
AcDbEntity
  8
CK_LEVEL_1
  6
CONTINUOUS
 62
         5
100
AcDbVertex
100
AcDb3dPolylineVertex
 10
139.7766342002
 20
-23.189618384
 30
-192.6020059747
 70
        32
  0
VERTEX
  5
3DD
100
AcDbEntity
  8
CK_LEVEL_1
  6
CONTINUOUS
 62
         5
100
AcDbVertex
100
AcDb3dPolylineVertex
 10
139.7368504182
 20
-23.160908002
 30
-192.5988125681
 70
        32
  0
VERTEX
  5
3DF
100
AcDbEntity
  8
CK_LEVEL_1
  6
CONTINUOUS
 62
         5
100
AcDbVertex
100
AcDb3dPolylineVertex
 10
139.6962992286
 20
-23.1329783283
 30
-192.5956565183
 70
        32
  0
VERTEX
  5
3E1
100
AcDbEntity
  8
CK_LEVEL_1
  6
CONTINUOUS
 62
         5
100
AcDbVertex
100
AcDb3dPolylineVertex
 10
139.6550067807
 20
-23.1058671915
 30
-192.5925462868
 70
        32
  0
VERTEX
  5
3E3
100
AcDbEntity
  8
CK_LEVEL_1
  6
CONTINUOUS
 62
         5
100
AcDbVertex
100
AcDb3dPolylineVertex
 10
139.6130066368
 20
-23.0796014654
 30
-192.58948974
 70
        32
  0
VERTEX
  5
3E5
100
AcDbEntity
  8
CK_LEVEL_1
  6
CONTINUOUS
 62
         5
100
AcDbVertex
100
AcDb3dPolylineVertex
 10
139.5703339986
 20
-23.0542056845
 30
-192.5864938811
 70
        32
  0
VERTEX
  5
3E7
100
AcDbEntity
  8
CK_LEVEL_1
  6
CONTINUOUS
 62
         5
100
AcDbVertex
100
AcDb3dPolylineVertex
 10
139.5270240679
 20
-23.0297043834
 30
-192.5835657132
 70
        32
  0
VERTEX
  5
3E9
100
AcDbEntity
  8
CK_LEVEL_1
  6
CONTINUOUS
 62
         5
100
AcDbVertex
100
AcDb3dPolylineVertex
 10
139.4831120464
 20
-23.0061220965
 30
-192.5807122397
 70
        32
  0
VERTEX
  5
3EB
100
AcDbEntity
  8
CK_LEVEL_1
  6
CONTINUOUS
 62
         5
100
AcDbVertex
100
AcDb3dPolylineVertex
 10
139.4386331361
 20
-22.9834833582
 30
-192.5779404637
 70
        32
  0
VERTEX
  5
3ED
100
AcDbEntity
  8
CK_LEVEL_1
  6
CONTINUOUS
 62
         5
100
AcDbVertex
100
AcDb3dPolylineVertex
 10
139.3936225385
 20
-22.9618127032
 30
-192.5752573885
 70
        32
  0
VERTEX
  5
3EF
100
AcDbEntity
  8
CK_LEVEL_1
  6
CONTINUOUS
 62
         5
100
AcDbVertex
100
AcDb3dPolylineVertex
 10
139.3481154556
 20
-22.9411346658
 30
-192.5726700172
 70
        32
  0
VERTEX
  5
3F1
100
AcDbEntity
  8
CK_LEVEL_1
  6
CONTINUOUS
 62
         5
100
AcDbVertex
100
AcDb3dPolylineVertex
 10
139.302147089
 20
-22.9214737806
 30
-192.5701853533
 70
        32
  0
VERTEX
  5
3F3
100
AcDbEntity
  8
CK_LEVEL_1
  6
CONTINUOUS
 62
         5
100
AcDbVertex
100
AcDb3dPolylineVertex
 10
139.2557455192
 20
-22.9028484463
 30
-192.5678099647
 70
        32
  0
VERTEX
  5
3F5
100
AcDbEntity
  8
CK_LEVEL_1
  6
CONTINUOUS
 62
         5
100
AcDbVertex
100
AcDb3dPolylineVertex
 10
139.208943537
 20
-22.8852660613
 30
-192.5655483648
 70
        32
  0
VERTEX
  5
3F7
100
AcDbEntity
  8
CK_LEVEL_1
  6
CONTINUOUS
 62
         5
100
AcDbVertex
100
AcDb3dPolylineVertex
 10
139.1617834098
 20
-22.8687346597
 30
-192.5634044741
 70
        32
  0
VERTEX
  5
3F9
100
AcDbEntity
  8
CK_LEVEL_1
  6
CONTINUOUS
 62
         5
100
AcDbVertex
100
AcDb3dPolylineVertex
 10
139.1143074049
 20
-22.8532622752
 30
-192.561382213
 70
        32
  0
VERTEX
  5
3FB
100
AcDbEntity
  8
CK_LEVEL_1
  6
CONTINUOUS
 62
         5
100
AcDbVertex
100
AcDb3dPolylineVertex
 10
139.0665577898
 20
-22.838856942
 30
-192.5594855022
 70
        32
  0
VERTEX
  5
3FD
100
AcDbEntity
  8
CK_LEVEL_1
  6
CONTINUOUS
 62
         5
100
AcDbVertex
100
AcDb3dPolylineVertex
 10
139.0185768319
 20
-22.8255266939
 30
-192.5577182623
 70
        32
  0
VERTEX
  5
3FF
100
AcDbEntity
  8
CK_LEVEL_1
  6
CONTINUOUS
 62
         5
100
AcDbVertex
100
AcDb3dPolylineVertex
 10
138.9704067986
 20
-22.8132795648
 30
-192.5560844138
 70
        32
  0
VERTEX
  5
401
100
AcDbEntity
  8
CK_LEVEL_1
  6
CONTINUOUS
 62
         5
100
AcDbVertex
100
AcDb3dPolylineVertex
 10
138.9220899572
 20
-22.8021235888
 30
-192.5545878772
 70
        32
  0
VERTEX
  5
403
100
AcDbEntity
  8
CK_LEVEL_1
  6
CONTINUOUS
 62
         5
100
AcDbVertex
100
AcDb3dPolylineVertex
 10
138.8736685753
 20
-22.7920667997
 30
-192.5532325731
 70
        32
  0
VERTEX
  5
405
100
AcDbEntity
  8
CK_LEVEL_1
  6
CONTINUOUS
 62
         5
100
AcDbVertex
100
AcDb3dPolylineVertex
 10
138.825185483
 20
-22.7831144374
 30
-192.5520218587
 70
        32
  0
VERTEX
  5
407
100
AcDbEntity
  8
CK_LEVEL_1
  6
CONTINUOUS
 62
         5
100
AcDbVertex
100
AcDb3dPolylineVertex
 10
138.7766861564
 20
-22.7752586652
 30
-192.5509560398
 70
        32
  0
VERTEX
  5
409
100
AcDbEntity
  8
CK_LEVEL_1
  6
CONTINUOUS
 62
         5
100
AcDbVertex
100
AcDb3dPolylineVertex
 10
138.7282168309
 20
-22.7684879022
 30
-192.5500344599
 70
        32
  0
VERTEX
  5
40B
100
AcDbEntity
  8
CK_LEVEL_1
  6
CONTINUOUS
 62
         5
100
AcDbVertex
100
AcDb3dPolylineVertex
 10
138.6798237422
 20
-22.762790568
 30
-192.5492564625
 70
        32
  0
VERTEX
  5
40D
100
AcDbEntity
  8
CK_LEVEL_1
  6
CONTINUOUS
 62
         5
100
AcDbVertex
100
AcDb3dPolylineVertex
 10
138.631553126
 20
-22.7581550815
 30
-192.5486213912
 70
        32
  0
VERTEX
  5
40F
100
AcDbEntity
  8
CK_LEVEL_1
  6
CONTINUOUS
 62
         5
100
AcDbVertex
100
AcDb3dPolylineVertex
 10
138.5834512179
 20
-22.7545698623
 30
-192.5481285896
 70
        32
  0
VERTEX
  5
411
100
AcDbEntity
  8
CK_LEVEL_1
  6
CONTINUOUS
 62
         5
100
AcDbVertex
100
AcDb3dPolylineVertex
 10
138.5355642536
 20
-22.7520233294
 30
-192.5477774012
 70
        32
  0
VERTEX
  5
413
100
AcDbEntity
  8
CK_LEVEL_1
  6
CONTINUOUS
 62
         5
100
AcDbVertex
100
AcDb3dPolylineVertex
 10
138.4879384686
 20
-22.7505039022
 30
-192.5475671696
 70
        32
  0
VERTEX
  5
415
100
AcDbEntity
  8
CK_LEVEL_1
  6
CONTINUOUS
 62
         5
100
AcDbVertex
100
AcDb3dPolylineVertex
 10
138.4406200986
 20
-22.75
 30
-192.5474972382
 70
        32
  0
VERTEX
  5
417
100
AcDbEntity
  8
CK_LEVEL_1
  6
CONTINUOUS
 62
         5
100
AcDbVertex
100
AcDb3dPolylineVertex
 10
138.3933017286
 20
-22.7505039022
 30
-192.5475671696
 70
        32
  0
VERTEX
  5
419
100
AcDbEntity
  8
CK_LEVEL_1
  6
CONTINUOUS
 62
         5
100
AcDbVertex
100
AcDb3dPolylineVertex
 10
138.3456759436
 20
-22.7520233294
 30
-192.5477774012
 70
        32
  0
VERTEX
  5
41B
100
AcDbEntity
  8
CK_LEVEL_1
  6
CONTINUOUS
 62
         5
100
AcDbVertex
100
AcDb3dPolylineVertex
 10
138.2977889793
 20
-22.7545698623
 30
-192.5481285896
 70
        32
  0
VERTEX
  5
41D
100
AcDbEntity
  8
CK_LEVEL_1
  6
CONTINUOUS
 62
         5
100
AcDbVertex
100
AcDb3dPolylineVertex
 10
138.2496870712
 20
-22.7581550815
 30
-192.5486213912
 70
        32
  0
VERTEX
  5
41F
100
AcDbEntity
  8
CK_LEVEL_1
  6
CONTINUOUS
 62
         5
100
AcDbVertex
100
AcDb3dPolylineVertex
 10
138.201416455
 20
-22.762790568
 30
-192.5492564625
 70
        32
  0
VERTEX
  5
421
100
AcDbEntity
  8
CK_LEVEL_1
  6
CONTINUOUS
 62
         5
100
AcDbVertex
100
AcDb3dPolylineVertex
 10
138.1530233663
 20
-22.7684879022
 30
-192.5500344599
 70
        32
  0
VERTEX
  5
423
100
AcDbEntity
  8
CK_LEVEL_1
  6
CONTINUOUS
 62
         5
100
AcDbVertex
100
AcDb3dPolylineVertex
 10
138.1045540408
 20
-22.7752586652
 30
-192.5509560398
 70
        32
  0
VERTEX
  5
425
100
AcDbEntity
  8
CK_LEVEL_1
  6
CONTINUOUS
 62
         5
100
AcDbVertex
100
AcDb3dPolylineVertex
 10
138.0560547142
 20
-22.7831144374
 30
-192.5520218587
 70
        32
  0
VERTEX
  5
427
100
AcDbEntity
  8
CK_LEVEL_1
  6
CONTINUOUS
 62
         5
100
AcDbVertex
100
AcDb3dPolylineVertex
 10
138.0075716219
 20
-22.7920667997
 30
-192.5532325731
 70
        32
  0
VERTEX
  5
429
100
AcDbEntity
  8
CK_LEVEL_1
  6
CONTINUOUS
 62
         5
100
AcDbVertex
100
AcDb3dPolylineVertex
 10
137.95915024
 20
-22.8021235888
 30
-192.5545878772
 70
        32
  0
VERTEX
  5
42B
100
AcDbEntity
  8
CK_LEVEL_1
  6
CONTINUOUS
 62
         5
100
AcDbVertex
100
AcDb3dPolylineVertex
 10
137.9108333986
 20
-22.8132795648
 30
-192.5560844138
 70
        32
  0
VERTEX
  5
42D
100
AcDbEntity
  8
CK_LEVEL_1
  6
CONTINUOUS
 62
         5
100
AcDbVertex
100
AcDb3dPolylineVertex
 10
137.8626633653
 20
-22.8255266939
 30
-192.5577182623
 70
        32
  0
VERTEX
  5
42F
100
AcDbEntity
  8
CK_LEVEL_1
  6
CONTINUOUS
 62
         5
100
AcDbVertex
100
AcDb3dPolylineVertex
 10
137.8146824074
 20
-22.838856942
 30
-192.5594855022
 70
        32
  0
VERTEX
  5
431
100
AcDbEntity
  8
CK_LEVEL_1
  6
CONTINUOUS
 62
         5
100
AcDbVertex
100
AcDb3dPolylineVertex
 10
137.7669327923
 20
-22.8532622752
 30
-192.561382213
 70
        32
  0
VERTEX
  5
433
100
AcDbEntity
  8
CK_LEVEL_1
  6
CONTINUOUS
 62
         5
100
AcDbVertex
100
AcDb3dPolylineVertex
 10
137.7194567874
 20
-22.8687346597
 30
-192.5634044741
 70
        32
  0
VERTEX
  5
435
100
AcDbEntity
  8
CK_LEVEL_1
  6
CONTINUOUS
 62
         5
100
AcDbVertex
100
AcDb3dPolylineVertex
 10
137.6722966602
 20
-22.8852660613
 30
-192.5655483648
 70
        32
  0
VERTEX
  5
437
100
AcDbEntity
  8
CK_LEVEL_1
  6
CONTINUOUS
 62
         5
100
AcDbVertex
100
AcDb3dPolylineVertex
 10
137.625494678
 20
-22.9028484463
 30
-192.5678099647
 70
        32
  0
VERTEX
  5
439
100
AcDbEntity
  8
CK_LEVEL_1
  6
CONTINUOUS
 62
         5
100
AcDbVertex
100
AcDb3dPolylineVertex
 10
137.5790931082
 20
-22.9214737806
 30
-192.5701853533
 70
        32
  0
VERTEX
  5
43B
100
AcDbEntity
  8
CK_LEVEL_1
  6
CONTINUOUS
 62
         5
100
AcDbVertex
100
AcDb3dPolylineVertex
 10
137.5331247417
 20
-22.9411346658
 30
-192.5726700172
 70
        32
  0
VERTEX
  5
43D
100
AcDbEntity
  8
CK_LEVEL_1
  6
CONTINUOUS
 62
         5
100
AcDbVertex
100
AcDb3dPolylineVertex
 10
137.4876176587
 20
-22.9618127032
 30
-192.5752573885
 70
        32
  0
VERTEX
  5
43F
100
AcDbEntity
  8
CK_LEVEL_1
  6
CONTINUOUS
 62
         5
100
AcDbVertex
100
AcDb3dPolylineVertex
 10
137.4426070612
 20
-22.9834833582
 30
-192.5779404637
 70
        32
  0
VERTEX
  5
441
100
AcDbEntity
  8
CK_LEVEL_1
  6
CONTINUOUS
 62
         5
100
AcDbVertex
100
AcDb3dPolylineVertex
 10
137.3981281508
 20
-23.0061220965
 30
-192.5807122397
 70
        32
  0
VERTEX
  5
443
100
AcDbEntity
  8
CK_LEVEL_1
  6
CONTINUOUS
 62
         5
100
AcDbVertex
100
AcDb3dPolylineVertex
 10
137.3542161293
 20
-23.0297043834
 30
-192.5835657132
 70
        32
  0
VERTEX
  5
445
100
AcDbEntity
  8
CK_LEVEL_1
  6
CONTINUOUS
 62
         5
100
AcDbVertex
100
AcDb3dPolylineVertex
 10
137.3109061986
 20
-23.0542056845
 30
-192.5864938811
 70
        32
  0
VERTEX
  5
447
100
AcDbEntity
  8
CK_LEVEL_1
  6
CONTINUOUS
 62
         5
100
AcDbVertex
100
AcDb3dPolylineVertex
 10
137.2682335604
 20
-23.0796014654
 30
-192.58948974
 70
        32
  0
VERTEX
  5
449
100
AcDbEntity
  8
CK_LEVEL_1
  6
CONTINUOUS
 62
         5
100
AcDbVertex
100
AcDb3dPolylineVertex
 10
137.2262334165
 20
-23.1058671915
 30
-192.5925462868
 70
        32
  0
VERTEX
  5
44B
100
AcDbEntity
  8
CK_LEVEL_1
  6
CONTINUOUS
 62
         5
100
AcDbVertex
100
AcDb3dPolylineVertex
 10
137.1849409686
 20
-23.1329783283
 30
-192.5956565183
 70
        32
  0
VERTEX
  5
44D
100
AcDbEntity
  8
CK_LEVEL_1
  6
CONTINUOUS
 62
         5
100
AcDbVertex
100
AcDb3dPolylineVertex
 10
137.144389779
 20
-23.160908002
 30
-192.5988125681
 70
        32
  0
VERTEX
  5
44F
100
AcDbEntity
  8
CK_LEVEL_1
  6
CONTINUOUS
 62
         5
100
AcDbVertex
100
AcDb3dPolylineVertex
 10
137.104605997
 20
-23.189618384
 30
-192.6020059747
 70
        32
  0
VERTEX
  5
451
100
AcDbEntity
  8
CK_LEVEL_1
  6
CONTINUOUS
 62
         5
100
AcDbVertex
100
AcDb3dPolylineVertex
 10
137.0656137048
 20
-23.2190685084
 30
-192.6052288419
 70
        32
  0
VERTEX
  5
453
100
AcDbEntity
  8
CK_LEVEL_1
  6
CONTINUOUS
 62
         5
100
AcDbVertex
100
AcDb3dPolylineVertex
 10
137.0274369845
 20
-23.249217409
 30
-192.6084732736
 70
        32
  0
VERTEX
  5
455
100
AcDbEntity
  8
CK_LEVEL_1
  6
CONTINUOUS
 62
         5
100
AcDbVertex
100
AcDb3dPolylineVertex
 10
136.9900999185
 20
-23.2800241197
 30
-192.6117313734
 70
        32
  0
VERTEX
  5
457
100
AcDbEntity
  8
CK_LEVEL_1
  6
CONTINUOUS
 62
         5
100
AcDbVertex
100
AcDb3dPolylineVertex
 10
136.9536265889
 20
-23.3114476745
 30
-192.6149952452
 70
        32
  0
VERTEX
  5
459
100
AcDbEntity
  8
CK_LEVEL_1
  6
CONTINUOUS
 62
         5
100
AcDbVertex
100
AcDb3dPolylineVertex
 10
136.9180410779
 20
-23.3434471072
 30
-192.6182569928
 70
        32
  0
VERTEX
  5
45B
100
AcDbEntity
  8
CK_LEVEL_1
  6
CONTINUOUS
 62
         5
100
AcDbVertex
100
AcDb3dPolylineVertex
 10
136.8833674679
 20
-23.3759814519
 30
-192.6215087199
 70
        32
  0
VERTEX
  5
45D
100
AcDbEntity
  8
CK_LEVEL_1
  6
CONTINUOUS
 62
         5
100
AcDbVertex
100
AcDb3dPolylineVertex
 10
136.8496298409
 20
-23.4090097423
 30
-192.6247425303
 70
        32
  0
VERTEX
  5
45F
100
AcDbEntity
  8
CK_LEVEL_1
  6
CONTINUOUS
 62
         5
100
AcDbVertex
100
AcDb3dPolylineVertex
 10
136.8166019069
 20
-23.4427469984
 30
-192.6279756359
 70
        32
  0
VERTEX
  5
461
100
AcDbEntity
  8
CK_LEVEL_1
  6
CONTINUOUS
 62
         5
100
AcDbVertex
100
AcDb3dPolylineVertex
 10
136.784067846
 20
-23.4774202854
 30
-192.6312253424
 70
        32
  0
VERTEX
  5
463
100
AcDbEntity
  8
CK_LEVEL_1
  6
CONTINUOUS
 62
         5
100
AcDbVertex
100
AcDb3dPolylineVertex
 10
136.7520686296
 20
-23.513005522
 30
-192.6344837793
 70
        32
  0
VERTEX
  5
465
100
AcDbEntity
  8
CK_LEVEL_1
  6
CONTINUOUS
 62
         5
100
AcDbVertex
100
AcDb3dPolylineVertex
 10
136.7206452292
 20
-23.5494786267
 30
-192.6377430764
 70
        32
  0
VERTEX
  5
467
100
AcDbEntity
  8
CK_LEVEL_1
  6
CONTINUOUS
 62
         5
100
AcDbVertex
100
AcDb3dPolylineVertex
 10
136.6898386164
 20
-23.5868155178
 30
-192.6409953633
 70
        32
  0
VERTEX
  5
469
100
AcDbEntity
  8
CK_LEVEL_1
  6
CONTINUOUS
 62
         5
100
AcDbVertex
100
AcDb3dPolylineVertex
 10
136.6596897626
 20
-23.624992114
 30
-192.6442327696
 70
        32
  0
VERTEX
  5
46B
100
AcDbEntity
  8
CK_LEVEL_1
  6
CONTINUOUS
 62
         5
100
AcDbVertex
100
AcDb3dPolylineVertex
 10
136.6302396395
 20
-23.6639843337
 30
-192.6474474252
 70
        32
  0
VERTEX
  5
46D
100
AcDbEntity
  8
CK_LEVEL_1
  6
CONTINUOUS
 62
         5
100
AcDbVertex
100
AcDb3dPolylineVertex
 10
136.6015292184
 20
-23.7037680955
 30
-192.6506314595
 70
        32
  0
VERTEX
  5
46F
100
AcDbEntity
  8
CK_LEVEL_1
  6
CONTINUOUS
 62
         5
100
AcDbVertex
100
AcDb3dPolylineVertex
 10
136.5735994709
 20
-23.7443193177
 30
-192.6537770023
 70
        32
  0
VERTEX
  5
471
100
AcDbEntity
  8
CK_LEVEL_1
  6
CONTINUOUS
 62
         5
100
AcDbVertex
100
AcDb3dPolylineVertex
 10
136.5464882331
 20
-23.7856118508
 30
-192.6568756498
 70
        32
  0
VERTEX
  5
473
100
AcDbEntity
  8
CK_LEVEL_1
  6
CONTINUOUS
 62
         5
100
AcDbVertex
100
AcDb3dPolylineVertex
 10
136.5202223861
 20
-23.8276121275
 30
-192.6599196533
 70
        32
  0
VERTEX
  5
475
100
AcDbEntity
  8
CK_LEVEL_1
  6
CONTINUOUS
 62
         5
100
AcDbVertex
100
AcDb3dPolylineVertex
 10
136.4948264694
 20
-23.8702849398
 30
-192.6629021251
 70
        32
  0
VERTEX
  5
477
100
AcDbEntity
  8
CK_LEVEL_1
  6
CONTINUOUS
 62
         5
100
AcDbVertex
100
AcDb3dPolylineVertex
 10
136.4703250224
 20
-23.9135950797
 30
-192.6658161779
 70
        32
  0
VERTEX
  5
479
100
AcDbEntity
  8
CK_LEVEL_1
  6
CONTINUOUS
 62
         5
100
AcDbVertex
100
AcDb3dPolylineVertex
 10
136.4467425845
 20
-23.957507339
 30
-192.6686549239
 70
        32
  0
VERTEX
  5
47B
100
AcDbEntity
  8
CK_LEVEL_1
  6
CONTINUOUS
 62
         5
100
AcDbVertex
100
AcDb3dPolylineVertex
 10
136.4241036951
 20
-24.0019865099
 30
-192.6714114757
 70
        32
  0
VERTEX
  5
47D
100
AcDbEntity
  8
CK_LEVEL_1
  6
CONTINUOUS
 62
         5
100
AcDbVertex
100
AcDb3dPolylineVertex
 10
136.4024328938
 20
-24.0469973843
 30
-192.6740789457
 70
        32
  0
VERTEX
  5
47F
100
AcDbEntity
  8
CK_LEVEL_1
  6
CONTINUOUS
 62
         5
100
AcDbVertex
100
AcDb3dPolylineVertex
 10
136.3817547198
 20
-24.0925047542
 30
-192.6766504463
 70
        32
  0
VERTEX
  5
481
100
AcDbEntity
  8
CK_LEVEL_1
  6
CONTINUOUS
 62
         5
100
AcDbVertex
100
AcDb3dPolylineVertex
 10
136.3620937126
 20
-24.1384734116
 30
-192.6791190899
 70
        32
  0
VERTEX
  5
483
100
AcDbEntity
  8
CK_LEVEL_1
  6
CONTINUOUS
 62
         5
100
AcDbVertex
100
AcDb3dPolylineVertex
 10
136.3434682756
 20
-24.1848752692
 30
-192.681478453
 70
        32
  0
VERTEX
  5
485
100
AcDbEntity
  8
CK_LEVEL_1
  6
CONTINUOUS
 62
         5
100
AcDbVertex
100
AcDb3dPolylineVertex
 10
136.3258858082
 20
-24.2316775299
 30
-192.6837241682
 70
        32
  0
VERTEX
  5
487
100
AcDbEntity
  8
CK_LEVEL_1
  6
CONTINUOUS
 62
         5
100
AcDbVertex
100
AcDb3dPolylineVertex
 10
136.3093543435
 20
-24.2788379209
 30
-192.6858524317
 70
        32
  0
VERTEX
  5
489
100
AcDbEntity
  8
CK_LEVEL_1
  6
CONTINUOUS
 62
         5
100
AcDbVertex
100
AcDb3dPolylineVertex
 10
136.2938819146
 20
-24.3263141693
 30
-192.6878594399
 70
        32
  0
VERTEX
  5
48B
100
AcDbEntity
  8
CK_LEVEL_1
  6
CONTINUOUS
 62
         5
100
AcDbVertex
100
AcDb3dPolylineVertex
 10
136.2794765547
 20
-24.3740640023
 30
-192.689741389
 70
        32
  0
VERTEX
  5
48D
100
AcDbEntity
  8
CK_LEVEL_1
  6
CONTINUOUS
 62
         5
100
AcDbVertex
100
AcDb3dPolylineVertex
 10
136.2661462968
 20
-24.4220451469
 30
-192.6914944754
 70
        32
  0
VERTEX
  5
48F
100
AcDbEntity
  8
CK_LEVEL_1
  6
CONTINUOUS
 62
         5
100
AcDbVertex
100
AcDb3dPolylineVertex
 10
136.2538991742
 20
-24.4702153304
 30
-192.6931148954
 70
        32
  0
VERTEX
  5
491
100
AcDbEntity
  8
CK_LEVEL_1
  6
CONTINUOUS
 62
         5
100
AcDbVertex
100
AcDb3dPolylineVertex
 10
136.2427432198
 20
-24.5185322798
 30
-192.6945988454
 70
        32
  0
VERTEX
  5
493
100
AcDbEntity
  8
CK_LEVEL_1
  6
CONTINUOUS
 62
         5
100
AcDbVertex
100
AcDb3dPolylineVertex
 10
136.232686467
 20
-24.5669537224
 30
-192.6959425217
 70
        32
  0
VERTEX
  5
495
100
AcDbEntity
  8
CK_LEVEL_1
  6
CONTINUOUS
 62
         5
100
AcDbVertex
100
AcDb3dPolylineVertex
 10
136.2237341537
 20
-24.6154368222
 30
-192.6971426868
 70
        32
  0
VERTEX
  5
497
100
AcDbEntity
  8
CK_LEVEL_1
  6
CONTINUOUS
 62
         5
100
AcDbVertex
100
AcDb3dPolylineVertex
 10
136.2158784392
 20
-24.6639360996
 30
-192.6981990949
 70
        32
  0
VERTEX
  5
499
100
AcDbEntity
  8
CK_LEVEL_1
  6
CONTINUOUS
 62
         5
100
AcDbVertex
100
AcDb3dPolylineVertex
 10
136.209107739
 20
-24.7124053164
 30
-192.6991124299
 70
        32
  0
VERTEX
  5
49B
100
AcDbEntity
  8
CK_LEVEL_1
  6
CONTINUOUS
 62
         5
100
AcDbVertex
100
AcDb3dPolylineVertex
 10
136.2034104685
 20
-24.7607982342
 30
-192.6998833757
 70
        32
  0
VERTEX
  5
49D
100
AcDbEntity
  8
CK_LEVEL_1
  6
CONTINUOUS
 62
         5
100
AcDbVertex
100
AcDb3dPolylineVertex
 10
136.198775043
 20
-24.8090686149
 30
-192.700512616
 70
        32
  0
VERTEX
  5
49F
100
AcDbEntity
  8
CK_LEVEL_1
  6
CONTINUOUS
 62
         5
100
AcDbVertex
100
AcDb3dPolylineVertex
 10
136.1951898779
 20
-24.8571702201
 30
-192.7010008347
 70
        32
  0
VERTEX
  5
4A1
100
AcDbEntity
  8
CK_LEVEL_1
  6
CONTINUOUS
 62
         5
100
AcDbVertex
100
AcDb3dPolylineVertex
 10
136.1926433885
 20
-24.9050568115
 30
-192.7013487157
 70
        32
  0
VERTEX
  5
4A3
100
AcDbEntity
  8
CK_LEVEL_1
  6
CONTINUOUS
 62
         5
100
AcDbVertex
100
AcDb3dPolylineVertex
 10
136.1911239903
 20
-24.9526821509
 30
-192.7015569429
 70
        32
  0
VERTEX
  5
4A5
100
AcDbEntity
  8
CK_LEVEL_1
  6
CONTINUOUS
 62
         5
100
AcDbVertex
100
AcDb3dPolylineVertex
 10
136.1906200986
 20
-25.0
 30
-192.7016261999
 70
        32
  0
VERTEX
  5
4A7
100
AcDbEntity
  8
CK_LEVEL_1
  6
CONTINUOUS
 62
         5
100
AcDbVertex
100
AcDb3dPolylineVertex
 10
136.1911239903
 20
-25.0473178491
 30
-192.7015569429
 70
        32
  0
VERTEX
  5
4A9
100
AcDbEntity
  8
CK_LEVEL_1
  6
CONTINUOUS
 62
         5
100
AcDbVertex
100
AcDb3dPolylineVertex
 10
136.1926433885
 20
-25.0949431885
 30
-192.7013487157
 70
        32
  0
VERTEX
  5
4AB
100
AcDbEntity
  8
CK_LEVEL_1
  6
CONTINUOUS
 62
         5
100
AcDbVertex
100
AcDb3dPolylineVertex
 10
136.1951898779
 20
-25.1428297799
 30
-192.7010008347
 70
        32
  0
VERTEX
  5
4AD
100
AcDbEntity
  8
CK_LEVEL_1
  6
CONTINUOUS
 62
         5
100
AcDbVertex
100
AcDb3dPolylineVertex
 10
136.198775043
 20
-25.1909313851
 30
-192.700512616
 70
        32
  0
VERTEX
  5
4AF
100
AcDbEntity
  8
CK_LEVEL_1
  6
CONTINUOUS
 62
         5
100
AcDbVertex
100
AcDb3dPolylineVertex
 10
136.2034104685
 20
-25.2392017658
 30
-192.6998833757
 70
        32
  0
VERTEX
  5
4B1
100
AcDbEntity
  8
CK_LEVEL_1
  6
CONTINUOUS
 62
         5
100
AcDbVertex
100
AcDb3dPolylineVertex
 10
136.209107739
 20
-25.2875946836
 30
-192.6991124299
 70
        32
  0
VERTEX
  5
4B3
100
AcDbEntity
  8
CK_LEVEL_1
  6
CONTINUOUS
 62
         5
100
AcDbVertex
100
AcDb3dPolylineVertex
 10
136.2158784392
 20
-25.3360639004
 30
-192.6981990949
 70
        32
  0
VERTEX
  5
4B5
100
AcDbEntity
  8
CK_LEVEL_1
  6
CONTINUOUS
 62
         5
100
AcDbVertex
100
AcDb3dPolylineVertex
 10
136.2237341537
 20
-25.3845631778
 30
-192.6971426868
 70
        32
  0
VERTEX
  5
4B7
100
AcDbEntity
  8
CK_LEVEL_1
  6
CONTINUOUS
 62
         5
100
AcDbVertex
100
AcDb3dPolylineVertex
 10
136.232686467
 20
-25.4330462776
 30
-192.6959425217
 70
        32
  0
VERTEX
  5
4B9
100
AcDbEntity
  8
CK_LEVEL_1
  6
CONTINUOUS
 62
         5
100
AcDbVertex
100
AcDb3dPolylineVertex
 10
136.2427432198
 20
-25.4814677202
 30
-192.6945988454
 70
        32
  0
VERTEX
  5
4BB
100
AcDbEntity
  8
CK_LEVEL_1
  6
CONTINUOUS
 62
         5
100
AcDbVertex
100
AcDb3dPolylineVertex
 10
136.2538991742
 20
-25.5297846696
 30
-192.6931148954
 70
        32
  0
VERTEX
  5
4BD
100
AcDbEntity
  8
CK_LEVEL_1
  6
CONTINUOUS
 62
         5
100
AcDbVertex
100
AcDb3dPolylineVertex
 10
136.2661462968
 20
-25.5779548531
 30
-192.6914944754
 70
        32
  0
VERTEX
  5
4BF
100
AcDbEntity
  8
CK_LEVEL_1
  6
CONTINUOUS
 62
         5
100
AcDbVertex
100
AcDb3dPolylineVertex
 10
136.2794765547
 20
-25.6259359977
 30
-192.689741389
 70
        32
  0
VERTEX
  5
4C1
100
AcDbEntity
  8
CK_LEVEL_1
  6
CONTINUOUS
 62
         5
100
AcDbVertex
100
AcDb3dPolylineVertex
 10
136.2938819146
 20
-25.6736858307
 30
-192.6878594399
 70
        32
  0
VERTEX
  5
4C3
100
AcDbEntity
  8
CK_LEVEL_1
  6
CONTINUOUS
 62
         5
100
AcDbVertex
100
AcDb3dPolylineVertex
 10
136.3093543435
 20
-25.7211620791
 30
-192.6858524317
 70
        32
  0
VERTEX
  5
4C5
100
AcDbEntity
  8
CK_LEVEL_1
  6
CONTINUOUS
 62
         5
100
AcDbVertex
100
AcDb3dPolylineVertex
 10
136.3258858082
 20
-25.7683224701
 30
-192.6837241682
 70
        32
  0
VERTEX
  5
4C7
100
AcDbEntity
  8
CK_LEVEL_1
  6
CONTINUOUS
 62
         5
100
AcDbVertex
100
AcDb3dPolylineVertex
 10
136.3434682756
 20
-25.8151247308
 30
-192.681478453
 70
        32
  0
VERTEX
  5
4C9
100
AcDbEntity
  8
CK_LEVEL_1
  6
CONTINUOUS
 62
         5
100
AcDbVertex
100
AcDb3dPolylineVertex
 10
136.3620937126
 20
-25.8615265884
 30
-192.6791190899
 70
        32
  0
VERTEX
  5
4CB
100
AcDbEntity
  8
CK_LEVEL_1
  6
CONTINUOUS
 62
         5
100
AcDbVertex
100
AcDb3dPolylineVertex
 10
136.3817547198
 20
-25.9074952458
 30
-192.6766504463
 70
        32
  0
VERTEX
  5
4CD
100
AcDbEntity
  8
CK_LEVEL_1
  6
CONTINUOUS
 62
         5
100
AcDbVertex
100
AcDb3dPolylineVertex
 10
136.4024328938
 20
-25.9530026157
 30
-192.6740789457
 70
        32
  0
VERTEX
  5
4CF
100
AcDbEntity
  8
CK_LEVEL_1
  6
CONTINUOUS
 62
         5
100
AcDbVertex
100
AcDb3dPolylineVertex
 10
136.4241036951
 20
-25.9980134901
 30
-192.6714114757
 70
        32
  0
VERTEX
  5
4D1
100
AcDbEntity
  8
CK_LEVEL_1
  6
CONTINUOUS
 62
         5
100
AcDbVertex
100
AcDb3dPolylineVertex
 10
136.4467425845
 20
-26.042492661
 30
-192.6686549239
 70
        32
  0
VERTEX
  5
4D3
100
AcDbEntity
  8
CK_LEVEL_1
  6
CONTINUOUS
 62
         5
100
AcDbVertex
100
AcDb3dPolylineVertex
 10
136.4703250224
 20
-26.0864049203
 30
-192.6658161779
 70
        32
  0
VERTEX
  5
4D5
100
AcDbEntity
  8
CK_LEVEL_1
  6
CONTINUOUS
 62
         5
100
AcDbVertex
100
AcDb3dPolylineVertex
 10
136.4948264694
 20
-26.1297150602
 30
-192.6629021251
 70
        32
  0
VERTEX
  5
4D7
100
AcDbEntity
  8
CK_LEVEL_1
  6
CONTINUOUS
 62
         5
100
AcDbVertex
100
AcDb3dPolylineVertex
 10
136.5202223861
 20
-26.1723878725
 30
-192.6599196533
 70
        32
  0
VERTEX
  5
4D9
100
AcDbEntity
  8
CK_LEVEL_1
  6
CONTINUOUS
 62
         5
100
AcDbVertex
100
AcDb3dPolylineVertex
 10
136.5464882331
 20
-26.2143881492
 30
-192.6568756498
 70
        32
  0
VERTEX
  5
4DB
100
AcDbEntity
  8
CK_LEVEL_1
  6
CONTINUOUS
 62
         5
100
AcDbVertex
100
AcDb3dPolylineVertex
 10
136.5735994709
 20
-26.2556806823
 30
-192.6537770023
 70
        32
  0
VERTEX
  5
4DD
100
AcDbEntity
  8
CK_LEVEL_1
  6
CONTINUOUS
 62
         5
100
AcDbVertex
100
AcDb3dPolylineVertex
 10
136.6015292184
 20
-26.2962319045
 30
-192.6506314595
 70
        32
  0
VERTEX
  5
4DF
100
AcDbEntity
  8
CK_LEVEL_1
  6
CONTINUOUS
 62
         5
100
AcDbVertex
100
AcDb3dPolylineVertex
 10
136.6302396395
 20
-26.3360156663
 30
-192.6474474252
 70
        32
  0
VERTEX
  5
4E1
100
AcDbEntity
  8
CK_LEVEL_1
  6
CONTINUOUS
 62
         5
100
AcDbVertex
100
AcDb3dPolylineVertex
 10
136.6596897626
 20
-26.375007886
 30
-192.6442327696
 70
        32
  0
VERTEX
  5
4E3
100
AcDbEntity
  8
CK_LEVEL_1
  6
CONTINUOUS
 62
         5
100
AcDbVertex
100
AcDb3dPolylineVertex
 10
136.6898386164
 20
-26.4131844822
 30
-192.6409953633
 70
        32
  0
VERTEX
  5
4E5
100
AcDbEntity
  8
CK_LEVEL_1
  6
CONTINUOUS
 62
         5
100
AcDbVertex
100
AcDb3dPolylineVertex
 10
136.7206452292
 20
-26.4505213733
 30
-192.6377430764
 70
        32
  0
VERTEX
  5
4E7
100
AcDbEntity
  8
CK_LEVEL_1
  6
CONTINUOUS
 62
         5
100
AcDbVertex
100
AcDb3dPolylineVertex
 10
136.7520686296
 20
-26.486994478
 30
-192.6344837793
 70
        32
  0
VERTEX
  5
4E9
100
AcDbEntity
  8
CK_LEVEL_1
  6
CONTINUOUS
 62
         5
100
AcDbVertex
100
AcDb3dPolylineVertex
 10
136.784067846
 20
-26.5225797146
 30
-192.6312253424
 70
        32
  0
VERTEX
  5
4EB
100
AcDbEntity
  8
CK_LEVEL_1
  6
CONTINUOUS
 62
         5
100
AcDbVertex
100
AcDb3dPolylineVertex
 10
136.8166019069
 20
-26.5572530016
 30
-192.6279756359
 70
        32
  0
VERTEX
  5
4ED
100
AcDbEntity
  8
CK_LEVEL_1
  6
CONTINUOUS
 62
         5
100
AcDbVertex
100
AcDb3dPolylineVertex
 10
136.8496298409
 20
-26.5909902577
 30
-192.6247425303
 70
        32
  0
VERTEX
  5
4EF
100
AcDbEntity
  8
CK_LEVEL_1
  6
CONTINUOUS
 62
         5
100
AcDbVertex
100
AcDb3dPolylineVertex
 10
136.8833674679
 20
-26.6240185481
 30
-192.6215087199
 70
        32
  0
VERTEX
  5
4F1
100
AcDbEntity
  8
CK_LEVEL_1
  6
CONTINUOUS
 62
         5
100
AcDbVertex
100
AcDb3dPolylineVertex
 10
136.9180410779
 20
-26.6565528928
 30
-192.6182569928
 70
        32
  0
VERTEX
  5
4F3
100
AcDbEntity
  8
CK_LEVEL_1
  6
CONTINUOUS
 62
         5
100
AcDbVertex
100
AcDb3dPolylineVertex
 10
136.9536265889
 20
-26.6885523255
 30
-192.6149952452
 70
        32
  0
VERTEX
  5
4F5
100
AcDbEntity
  8
CK_LEVEL_1
  6
CONTINUOUS
 62
         5
100
AcDbVertex
100
AcDb3dPolylineVertex
 10
136.9900999185
 20
-26.7199758803
 30
-192.6117313734
 70
        32
  0
VERTEX
  5
4F7
100
AcDbEntity
  8
CK_LEVEL_1
  6
CONTINUOUS
 62
         5
100
AcDbVertex
100
AcDb3dPolylineVertex
 10
137.0274369845
 20
-26.750782591
 30
-192.6084732736
 70
        32
  0
VERTEX
  5
4F9
100
AcDbEntity
  8
CK_LEVEL_1
  6
CONTINUOUS
 62
         5
100
AcDbVertex
100
AcDb3dPolylineVertex
 10
137.0656137048
 20
-26.7809314916
 30
-192.6052288419
 70
        32
  0
VERTEX
  5
4FB
100
AcDbEntity
  8
CK_LEVEL_1
  6
CONTINUOUS
 62
         5
100
AcDbVertex
100
AcDb3dPolylineVertex
 10
137.104605997
 20
-26.810381616
 30
-192.6020059747
 70
        32
  0
VERTEX
  5
4FD
100
AcDbEntity
  8
CK_LEVEL_1
  6
CONTINUOUS
 62
         5
100
AcDbVertex
100
AcDb3dPolylineVertex
 10
137.144389779
 20
-26.839091998
 30
-192.5988125681
 70
        32
  0
VERTEX
  5
4FF
100
AcDbEntity
  8
CK_LEVEL_1
  6
CONTINUOUS
 62
         5
100
AcDbVertex
100
AcDb3dPolylineVertex
 10
137.1849409686
 20
-26.8670216717
 30
-192.5956565183
 70
        32
  0
VERTEX
  5
501
100
AcDbEntity
  8
CK_LEVEL_1
  6
CONTINUOUS
 62
         5
100
AcDbVertex
100
AcDb3dPolylineVertex
 10
137.2262334165
 20
-26.8941328085
 30
-192.5925462868
 70
        32
  0
VERTEX
  5
503
100
AcDbEntity
  8
CK_LEVEL_1
  6
CONTINUOUS
 62
         5
100
AcDbVertex
100
AcDb3dPolylineVertex
 10
137.2682335604
 20
-26.9203985346
 30
-192.58948974
 70
        32
  0
VERTEX
  5
505
100
AcDbEntity
  8
CK_LEVEL_1
  6
CONTINUOUS
 62
         5
100
AcDbVertex
100
AcDb3dPolylineVertex
 10
137.3109061986
 20
-26.9457943155
 30
-192.5864938811
 70
        32
  0
VERTEX
  5
507
100
AcDbEntity
  8
CK_LEVEL_1
  6
CONTINUOUS
 62
         5
100
AcDbVertex
100
AcDb3dPolylineVertex
 10
137.3542161293
 20
-26.9702956166
 30
-192.5835657132
 70
        32
  0
VERTEX
  5
509
100
AcDbEntity
  8
CK_LEVEL_1
  6
CONTINUOUS
 62
         5
100
AcDbVertex
100
AcDb3dPolylineVertex
 10
137.3981281508
 20
-26.9938779035
 30
-192.5807122397
 70
        32
  0
VERTEX
  5
50B
100
AcDbEntity
  8
CK_LEVEL_1
  6
CONTINUOUS
 62
         5
100
AcDbVertex
100
AcDb3dPolylineVertex
 10
137.4426070612
 20
-27.0165166418
 30
-192.5779404637
 70
        32
  0
VERTEX
  5
50D
100
AcDbEntity
  8
CK_LEVEL_1
  6
CONTINUOUS
 62
         5
100
AcDbVertex
100
AcDb3dPolylineVertex
 10
137.4876176587
 20
-27.0381872968
 30
-192.5752573885
 70
        32
  0
VERTEX
  5
50F
100
AcDbEntity
  8
CK_LEVEL_1
  6
CONTINUOUS
 62
         5
100
AcDbVertex
100
AcDb3dPolylineVertex
 10
137.5331247417
 20
-27.0588653342
 30
-192.5726700172
 70
        32
  0
VERTEX
  5
511
100
AcDbEntity
  8
CK_LEVEL_1
  6
CONTINUOUS
 62
         5
100
AcDbVertex
100
AcDb3dPolylineVertex
 10
137.5790931082
 20
-27.0785262194
 30
-192.5701853533
 70
        32
  0
VERTEX
  5
513
100
AcDbEntity
  8
CK_LEVEL_1
  6
CONTINUOUS
 62
         5
100
AcDbVertex
100
AcDb3dPolylineVertex
 10
137.625494678
 20
-27.0971515537
 30
-192.5678099647
 70
        32
  0
VERTEX
  5
515
100
AcDbEntity
  8
CK_LEVEL_1
  6
CONTINUOUS
 62
         5
100
AcDbVertex
100
AcDb3dPolylineVertex
 10
137.6722966602
 20
-27.1147339387
 30
-192.5655483648
 70
        32
  0
VERTEX
  5
517
100
AcDbEntity
  8
CK_LEVEL_1
  6
CONTINUOUS
 62
         5
100
AcDbVertex
100
AcDb3dPolylineVertex
 10
137.7194567874
 20
-27.1312653403
 30
-192.5634044741
 70
        32
  0
VERTEX
  5
519
100
AcDbEntity
  8
CK_LEVEL_1
  6
CONTINUOUS
 62
         5
100
AcDbVertex
100
AcDb3dPolylineVertex
 10
137.7669327923
 20
-27.1467377248
 30
-192.561382213
 70
        32
  0
VERTEX
  5
51B
100
AcDbEntity
  8
CK_LEVEL_1
  6
CONTINUOUS
 62
         5
100
AcDbVertex
100
AcDb3dPolylineVertex
 10
137.8146824074
 20
-27.161143058
 30
-192.5594855022
 70
        32
  0
VERTEX
  5
51D
100
AcDbEntity
  8
CK_LEVEL_1
  6
CONTINUOUS
 62
         5
100
AcDbVertex
100
AcDb3dPolylineVertex
 10
137.8626633653
 20
-27.1744733061
 30
-192.5577182623
 70
        32
  0
VERTEX
  5
51F
100
AcDbEntity
  8
CK_LEVEL_1
  6
CONTINUOUS
 62
         5
100
AcDbVertex
100
AcDb3dPolylineVertex
 10
137.9108333986
 20
-27.1867204352
 30
-192.5560844138
 70
        32
  0
VERTEX
  5
521
100
AcDbEntity
  8
CK_LEVEL_1
  6
CONTINUOUS
 62
         5
100
AcDbVertex
100
AcDb3dPolylineVertex
 10
137.95915024
 20
-27.1978764112
 30
-192.5545878772
 70
        32
  0
VERTEX
  5
523
100
AcDbEntity
  8
CK_LEVEL_1
  6
CONTINUOUS
 62
         5
100
AcDbVertex
100
AcDb3dPolylineVertex
 10
138.0075716219
 20
-27.2079332003
 30
-192.5532325731
 70
        32
  0
VERTEX
  5
525
100
AcDbEntity
  8
CK_LEVEL_1
  6
CONTINUOUS
 62
         5
100
AcDbVertex
100
AcDb3dPolylineVertex
 10
138.0560547142
 20
-27.2168855626
 30
-192.5520218587
 70
        32
  0
VERTEX
  5
527
100
AcDbEntity
  8
CK_LEVEL_1
  6
CONTINUOUS
 62
         5
100
AcDbVertex
100
AcDb3dPolylineVertex
 10
138.1045540408
 20
-27.2247413348
 30
-192.5509560398
 70
        32
  0
VERTEX
  5
529
100
AcDbEntity
  8
CK_LEVEL_1
  6
CONTINUOUS
 62
         5
100
AcDbVertex
100
AcDb3dPolylineVertex
 10
138.1530233663
 20
-27.2315120978
 30
-192.5500344599
 70
        32
  0
VERTEX
  5
52B
100
AcDbEntity
  8
CK_LEVEL_1
  6
CONTINUOUS
 62
         5
100
AcDbVertex
100
AcDb3dPolylineVertex
 10
138.201416455
 20
-27.237209432
 30
-192.5492564625
 70
        32
  0
VERTEX
  5
52D
100
AcDbEntity
  8
CK_LEVEL_1
  6
CONTINUOUS
 62
         5
100
AcDbVertex
100
AcDb3dPolylineVertex
 10
138.2496870712
 20
-27.2418449185
 30
-192.5486213912
 70
        32
  0
VERTEX
  5
52F
100
AcDbEntity
  8
CK_LEVEL_1
  6
CONTINUOUS
 62
         5
100
AcDbVertex
100
AcDb3dPolylineVertex
 10
138.2977889793
 20
-27.2454301377
 30
-192.5481285896
 70
        32
  0
VERTEX
  5
531
100
AcDbEntity
  8
CK_LEVEL_1
  6
CONTINUOUS
 62
         5
100
AcDbVertex
100
AcDb3dPolylineVertex
 10
138.3456759436
 20
-27.2479766706
 30
-192.5477774012
 70
        32
  0
VERTEX
  5
533
100
AcDbEntity
  8
CK_LEVEL_1
  6
CONTINUOUS
 62
         5
100
AcDbVertex
100
AcDb3dPolylineVertex
 10
138.3933017286
 20
-27.2494960978
 30
-192.5475671696
 70
        32
  0
VERTEX
  5
535
100
AcDbEntity
  8
CK_LEVEL_1
  6
CONTINUOUS
 62
         5
100
AcDbVertex
100
AcDb3dPolylineVertex
 10
138.4406200986
 20
-27.25
 30
-192.5474972382
 70
        32
  0
SEQEND
  5
537
100
AcDbEntity
  8
CK_LEVEL_1
  6
CONTINUOUS
 62
         5
  0
CIRCLE
  5
538
100
AcDbEntity
  8
CK_LEVEL_1
  6
CONTINUOUS
 62
         5
100
AcDbCircle
 10
25.0
 20
-176.2016262
 30
-110.9406200986
 40
15.75
210
-1.0
220
0.0
230
0.0
  0
CIRCLE
  5
539
100
AcDbEntity
  8
CK_LEVEL_1
  6
CONTINUOUS
 62
         5
100
AcDbCircle
 10
25.0
 20
-176.2016262
 30
-110.9406200986
 40
16.5
210
-1.0
220
0.0
230
0.0
  0
CIRCLE
  5
53A
100
AcDbEntity
  8
CK_LEVEL_1
  6
CONTINUOUS
 62
         5
100
AcDbCircle
 10
25.0
 20
-176.2016262
 30
-115.6056836081
 40
14.5
210
-1.0
220
0.0
230
0.0
  0
CIRCLE
  5
53B
100
AcDbEntity
  8
CK_LEVEL_1
  6
CONTINUOUS
 62
         5
100
AcDbCircle
 10
25.0
 20
-176.2016262
 30
-161.9406200986
 40
14.5
210
-1.0
220
0.0
230
0.0
  0
CIRCLE
  5
53C
100
AcDbEntity
  8
CK_LEVEL_1
  6
CONTINUOUS
 62
         5
100
AcDbCircle
 10
25.0
 20
-176.2016262
 30
-162.9406200986
 40
13.5
210
-1.0
220
0.0
230
0.0
  0
CIRCLE
  5
53D
100
AcDbEntity
  8
CK_LEVEL_1
  6
CONTINUOUS
 62
         5
100
AcDbCircle
 10
25.0
 20
-176.2016262
 30
-162.9406200986
 40
7.5
210
-1.0
220
0.0
230
0.0
  0
CIRCLE
  5
53E
100
AcDbEntity
  8
CK_LEVEL_1
  6
CONTINUOUS
 62
         5
100
AcDbCircle
 10
25.0
 20
-176.2016262
 30
-161.9406200986
 40
6.5
210
-1.0
220
0.0
230
0.0
  0
CIRCLE
  5
53F
100
AcDbEntity
  8
CK_LEVEL_1
  6
CONTINUOUS
 62
         5
100
AcDbCircle
 10
25.0
 20
-176.2016262
 30
-152.9406200986
 40
6.5
210
-1.0
220
0.0
230
0.0
  0
CIRCLE
  5
540
100
AcDbEntity
  8
CK_LEVEL_1
  6
CONTINUOUS
 62
         5
100
AcDbCircle
 10
25.0
 20
-176.2016262
 30
-152.9406200986
 40
4.3
210
-1.0
220
0.0
230
0.0
  0
CIRCLE
  5
541
100
AcDbEntity
  8
CK_LEVEL_1
  6
CONTINUOUS
 62
         5
100
AcDbCircle
 10
25.0
 20
-176.2016262
 30
-153.2406200986
 40
4.0
210
-1.0
220
0.0
230
0.0
  0
CIRCLE
  5
542
100
AcDbEntity
  8
CK_LEVEL_1
  6
CONTINUOUS
 62
         5
100
AcDbCircle
 10
25.0
 20
-176.2016262
 30
-154.9406200986
 40
4.0
210
-1.0
220
0.0
230
0.0
  0
CIRCLE
  5
543
100
AcDbEntity
  8
CK_LEVEL_1
  6
CONTINUOUS
 62
         5
100
AcDbCircle
 10
25.0
 20
-176.2016262
 30
-155.5406200986
 40
3.4
210
-1.0
220
0.0
230
0.0
  0
ENDBLK
  5
544
100
AcDbEntity
  8
0
  6
CONTINUOUS
100
AcDbBlockEnd
  0
BLOCK
  5
548
100
AcDbEntity
  8
0
100
AcDbBlockBegin
  2
CKCOLL2326
 70
        64
 10
0.0
 20
0.0
 30
0.0
  3
CKCOLL2326
  1

  0
LINE
  5
549
100
AcDbEntity
  8
CK_LEVEL_1
  6
CONTINUOUS
 62
         2
100
AcDbLine
 10
101.4406200488
 20
-150.0
 30
-205.9516262
 11
98.4406200488
 21
-150.0
 31
-205.9516262
  0
LINE
  5
54A
100
AcDbEntity
  8
CK_LEVEL_1
  6
CONTINUOUS
 62
         2
100
AcDbLine
 10
101.4406200488
 20
-179.75
 30
-176.2016262
 11
98.4406200488
 21
-179.75
 31
-176.2016262
  0
LINE
  5
54B
100
AcDbEntity
  8
CK_LEVEL_1
  6
CONTINUOUS
 62
         2
100
AcDbLine
 10
101.4406200488
 20
-150.0
 30
-146.4516262
 11
98.4406200488
 21
-150.0
 31
-146.4516262
  0
LINE
  5
54C
100
AcDbEntity
  8
CK_LEVEL_1
  6
CONTINUOUS
 62
         2
100
AcDbLine
 10
101.4406200488
 20
-120.25
 30
-176.2016262
 11
98.4406200488
 21
-120.25
 31
-176.2016262
  0
LINE
  5
54D
100
AcDbEntity
  8
CK_LEVEL_1
  6
CONTINUOUS
 62
         2
100
AcDbLine
 10
98.4406200488
 20
-150.0
 30
-194.2016262
 11
96.6406200488
 21
-150.0
 31
-194.2016262
  0
LINE
  5
54E
100
AcDbEntity
  8
CK_LEVEL_1
  6
CONTINUOUS
 62
         2
100
AcDbLine
 10
98.4406200488
 20
-168.0
 30
-176.2016262
 11
96.6406200488
 21
-168.0
 31
-176.2016262
  0
LINE
  5
54F
100
AcDbEntity
  8
CK_LEVEL_1
  6
CONTINUOUS
 62
         2
100
AcDbLine
 10
98.4406200488
 20
-150.0
 30
-158.2016262
 11
96.6406200488
 21
-150.0
 31
-158.2016262
  0
LINE
  5
550
100
AcDbEntity
  8
CK_LEVEL_1
  6
CONTINUOUS
 62
         2
100
AcDbLine
 10
98.4406200488
 20
-132.0
 30
-176.2016262
 11
96.6406200488
 21
-132.0
 31
-176.2016262
  0
ARC
  5
551
100
AcDbEntity
  8
CK_LEVEL_1
  6
CONTINUOUS
 62
         2
100
AcDbCircle
 10
-96.6406200488
 20
-167.5
 30
176.2016262
 40
0.5
210
0.0
220
0.0
230
-1.0
100
AcDbArc
 50
270.0
 51
360.0
  0
ARC
  5
552
100
AcDbEntity
  8
CK_LEVEL_1
  6
CONTINUOUS
 62
         2
100
AcDbCircle
 10
96.6406200488
 20
-158.7016262
 30
150.0
 40
0.5
210
0.0
220
-1.0
230
0.0
100
AcDbArc
 50
90.0
 51
180.0
  0
ARC
  5
553
100
AcDbEntity
  8
CK_LEVEL_1
  6
CONTINUOUS
 62
         2
100
AcDbCircle
 10
96.6406200488
 20
-132.5
 30
-176.2016262
 40
0.5
100
AcDbArc
 50
90.0
 51
180.0
  0
ARC
  5
554
100
AcDbEntity
  8
CK_LEVEL_1
  6
CONTINUOUS
 62
         2
100
AcDbCircle
 10
-96.6406200488
 20
-193.7016262
 30
-150.0
 40
0.5
210
0.0
220
1.0
230
0.0
100
AcDbArc
 50
270.0
 51
360.0
  0
CIRCLE
  5
555
100
AcDbEntity
  8
CK_LEVEL_1
  6
CONTINUOUS
 62
         2
100
AcDbCircle
 10
150.0
 20
-176.2016262
 30
-96.2870666582
 40
17.8535533906
210
-1.0
220
0.0
230
0.0
  0
ARC
  5
556
100
AcDbEntity
  8
CK_LEVEL_1
  6
CONTINUOUS
 62
         2
100
AcDbCircle
 10
-96.4406200488
 20
-163.95
 30
176.2016262
 40
0.3
210
0.0
220
0.0
230
-1.0
100
AcDbArc
 50
0.0
 51
90.0
  0
ARC
  5
557
100
AcDbEntity
  8
CK_LEVEL_1
  6
CONTINUOUS
 62
         2
100
AcDbCircle
 10
96.4406200488
 20
-162.2516262
 30
150.0
 40
0.3
210
0.0
220
-1.0
230
0.0
100
AcDbArc
 50
180.0
 51
270.0
  0
ARC
  5
558
100
AcDbEntity
  8
CK_LEVEL_1
  6
CONTINUOUS
 62
         2
100
AcDbCircle
 10
96.4406200488
 20
-136.05
 30
-176.2016262
 40
0.3
100
AcDbArc
 50
180.0
 51
270.0
  0
ARC
  5
559
100
AcDbEntity
  8
CK_LEVEL_1
  6
CONTINUOUS
 62
         2
100
AcDbCircle
 10
-96.4406200488
 20
-190.1516262
 30
-150.0
 40
0.3
210
0.0
220
1.0
230
0.0
100
AcDbArc
 50
0.0
 51
90.0
  0
CIRCLE
  5
55A
100
AcDbEntity
  8
CK_LEVEL_1
  6
CONTINUOUS
 62
         2
100
AcDbCircle
 10
150.0
 20
-176.2016262
 30
-96.2284880145
 40
13.7378679656
210
-1.0
220
0.0
230
0.0
  0
LINE
  5
55B
100
AcDbEntity
  8
CK_LEVEL_1
  6
CONTINUOUS
 62
         2
100
AcDbLine
 10
97.6406200488
 20
-150.0
 30
-189.8516262
 11
96.4406200488
 21
-150.0
 31
-189.8516262
  0
LINE
  5
55C
100
AcDbEntity
  8
CK_LEVEL_1
  6
CONTINUOUS
 62
         2
100
AcDbLine
 10
97.6406200488
 20
-163.65
 30
-176.2016262
 11
96.4406200488
 21
-163.65
 31
-176.2016262
  0
LINE
  5
55D
100
AcDbEntity
  8
CK_LEVEL_1
  6
CONTINUOUS
 62
         2
100
AcDbLine
 10
97.6406200488
 20
-150.0
 30
-162.5516262
 11
96.4406200488
 21
-150.0
 31
-162.5516262
  0
LINE
  5
55E
100
AcDbEntity
  8
CK_LEVEL_1
  6
CONTINUOUS
 62
         2
100
AcDbLine
 10
97.6406200488
 20
-136.35
 30
-176.2016262
 11
96.4406200488
 21
-136.35
 31
-176.2016262
  0
ARC
  5
55F
100
AcDbEntity
  8
CK_LEVEL_1
  6
CONTINUOUS
 62
         2
100
AcDbCircle
 10
-98.3351950488
 20
-165.105425
 30
176.2016262
 40
0.694575
210
0.0
220
0.0
230
-1.0
100
AcDbArc
 50
270.0
 51
360.0
  0
ARC
  5
560
100
AcDbEntity
  8
CK_LEVEL_1
  6
CONTINUOUS
 62
         2
100
AcDbCircle
 10
98.3351950488
 20
-161.0962012
 30
150.0
 40
0.694575
210
0.0
220
-1.0
230
0.0
100
AcDbArc
 50
90.0
 51
180.0
  0
ARC
  5
561
100
AcDbEntity
  8
CK_LEVEL_1
  6
CONTINUOUS
 62
         2
100
AcDbCircle
 10
98.3351950488
 20
-134.894575
 30
-176.2016262
 40
0.694575
100
AcDbArc
 50
90.0
 51
180.0
  0
ARC
  5
562
100
AcDbEntity
  8
CK_LEVEL_1
  6
CONTINUOUS
 62
         2
100
AcDbCircle
 10
-98.3351950488
 20
-191.3070512
 30
-150.0
 40
0.694575
210
0.0
220
1.0
230
0.0
100
AcDbArc
 50
270.0
 51
360.0
  0
CIRCLE
  5
563
100
AcDbEntity
  8
CK_LEVEL_1
  6
CONTINUOUS
 62
         2
100
AcDbCircle
 10
150.0
 20
-176.2016262
 30
-97.8440563563
 40
15.5965636925
210
-1.0
220
0.0
230
0.0
  0
LINE
  5
564
100
AcDbEntity
  8
CK_LEVEL_1
  6
CONTINUOUS
 62
         2
100
AcDbLine
 10
99.7406200488
 20
-150.0
 30
-192.0016262
 11
98.3351950488
 21
-150.0
 31
-192.0016262
  0
LINE
  5
565
100
AcDbEntity
  8
CK_LEVEL_1
  6
CONTINUOUS
 62
         2
100
AcDbLine
 10
99.7406200488
 20
-165.8
 30
-176.2016262
 11
98.3351950488
 21
-165.8
 31
-176.2016262
  0
LINE
  5
566
100
AcDbEntity
  8
CK_LEVEL_1
  6
CONTINUOUS
 62
         2
100
AcDbLine
 10
99.7406200488
 20
-150.0
 30
-160.4016262
 11
98.3351950488
 21
-150.0
 31
-160.4016262
  0
LINE
  5
567
100
AcDbEntity
  8
CK_LEVEL_1
  6
CONTINUOUS
 62
         2
100
AcDbLine
 10
99.7406200488
 20
-134.2
 30
-176.2016262
 11
98.3351950488
 21
-134.2
 31
-176.2016262
  0
ARC
  5
568
100
AcDbEntity
  8
CK_LEVEL_1
  6
CONTINUOUS
 62
         2
100
AcDbCircle
 10
-99.7406200488
 20
-165.1
 30
176.2016262
 40
0.7
210
0.0
220
0.0
230
-1.0
100
AcDbArc
 50
180.0
 51
270.0
  0
ARC
  5
569
100
AcDbEntity
  8
CK_LEVEL_1
  6
CONTINUOUS
 62
         2
100
AcDbCircle
 10
99.7406200488
 20
-161.1016262
 30
150.0
 40
0.7
210
0.0
220
-1.0
230
0.0
100
AcDbArc
 50
0.0
 51
90.0
  0
ARC
  5
56A
100
AcDbEntity
  8
CK_LEVEL_1
  6
CONTINUOUS
 62
         2
100
AcDbCircle
 10
99.7406200488
 20
-134.9
 30
-176.2016262
 40
0.7
100
AcDbArc
 50
0.0
 51
90.0
  0
ARC
  5
56B
100
AcDbEntity
  8
CK_LEVEL_1
  6
CONTINUOUS
 62
         2
100
AcDbCircle
 10
-99.7406200488
 20
-191.3016262
 30
-150.0
 40
0.7
210
0.0
220
1.0
230
0.0
100
AcDbArc
 50
180.0
 51
270.0
  0
CIRCLE
  5
56C
100
AcDbEntity
  8
CK_LEVEL_1
  6
CONTINUOUS
 62
         2
100
AcDbCircle
 10
150.0
 20
-176.2016262
 30
-100.2355947956
 40
15.5949747468
210
-1.0
220
0.0
230
0.0
  0
LINE
  5
56D
100
AcDbEntity
  8
CK_LEVEL_1
  6
CONTINUOUS
 62
         2
100
AcDbLine
 10
101.6406200488
 20
-150.0
 30
-189.8516262
 11
100.4406200488
 21
-150.0
 31
-189.8516262
  0
LINE
  5
56E
100
AcDbEntity
  8
CK_LEVEL_1
  6
CONTINUOUS
 62
         2
100
AcDbLine
 10
101.6406200488
 20
-163.65
 30
-176.2016262
 11
100.4406200488
 21
-163.65
 31
-176.2016262
  0
LINE
  5
56F
100
AcDbEntity
  8
CK_LEVEL_1
  6
CONTINUOUS
 62
         2
100
AcDbLine
 10
101.6406200488
 20
-150.0
 30
-162.5516262
 11
100.4406200488
 21
-150.0
 31
-162.5516262
  0
LINE
  5
570
100
AcDbEntity
  8
CK_LEVEL_1
  6
CONTINUOUS
 62
         2
100
AcDbLine
 10
101.6406200488
 20
-136.35
 30
-176.2016262
 11
100.4406200488
 21
-136.35
 31
-176.2016262
  0
ARC
  5
571
100
AcDbEntity
  8
CK_LEVEL_1
  6
CONTINUOUS
 62
         2
100
AcDbCircle
 10
-101.6406200488
 20
-163.95
 30
176.2016262
 40
0.3
210
0.0
220
0.0
230
-1.0
100
AcDbArc
 50
90.0
 51
180.0
  0
ARC
  5
572
100
AcDbEntity
  8
CK_LEVEL_1
  6
CONTINUOUS
 62
         2
100
AcDbCircle
 10
101.6406200488
 20
-162.2516262
 30
150.0
 40
0.3
210
0.0
220
-1.0
230
0.0
100
AcDbArc
 50
270.0
 51
360.0
  0
ARC
  5
573
100
AcDbEntity
  8
CK_LEVEL_1
  6
CONTINUOUS
 62
         2
100
AcDbCircle
 10
101.6406200488
 20
-136.05
 30
-176.2016262
 40
0.3
100
AcDbArc
 50
270.0
 51
360.0
  0
ARC
  5
574
100
AcDbEntity
  8
CK_LEVEL_1
  6
CONTINUOUS
 62
         2
100
AcDbCircle
 10
-101.6406200488
 20
-190.1516262
 30
-150.0
 40
0.3
210
0.0
220
1.0
230
0.0
100
AcDbArc
 50
90.0
 51
180.0
  0
CIRCLE
  5
575
100
AcDbEntity
  8
CK_LEVEL_1
  6
CONTINUOUS
 62
         2
100
AcDbCircle
 10
150.0
 20
-176.2016262
 30
-101.8527520832
 40
13.7378679656
210
-1.0
220
0.0
230
0.0
  0
ARC
  5
576
100
AcDbEntity
  8
CK_LEVEL_1
  6
CONTINUOUS
 62
         2
100
AcDbCircle
 10
-101.4406200488
 20
-179.25
 30
176.2016262
 40
0.5
210
0.0
220
0.0
230
-1.0
100
AcDbArc
 50
180.0
 51
270.0
  0
ARC
  5
577
100
AcDbEntity
  8
CK_LEVEL_1
  6
CONTINUOUS
 62
         2
100
AcDbCircle
 10
101.4406200488
 20
-146.9516262
 30
150.0
 40
0.5
210
0.0
220
-1.0
230
0.0
100
AcDbArc
 50
0.0
 51
90.0
  0
ARC
  5
578
100
AcDbEntity
  8
CK_LEVEL_1
  6
CONTINUOUS
 62
         2
100
AcDbCircle
 10
101.4406200488
 20
-120.75
 30
-176.2016262
 40
0.5
100
AcDbArc
 50
0.0
 51
90.0
  0
ARC
  5
579
100
AcDbEntity
  8
CK_LEVEL_1
  6
CONTINUOUS
 62
         2
100
AcDbCircle
 10
-101.4406200488
 20
-205.4516262
 30
-150.0
 40
0.5
210
0.0
220
1.0
230
0.0
100
AcDbArc
 50
180.0
 51
270.0
  0
CIRCLE
  5
57A
100
AcDbEntity
  8
CK_LEVEL_1
  6
CONTINUOUS
 62
         2
100
AcDbCircle
 10
150.0
 20
-176.2016262
 30
-101.7941734394
 40
29.6035533906
210
-1.0
220
0.0
230
0.0
  0
CIRCLE
  5
57B
100
AcDbEntity
  8
CK_LEVEL_1
  6
CONTINUOUS
 62
         2
100
AcDbCircle
 10
150.0
 20
-176.2016262
 30
-98.4406200488
 40
29.75
210
-1.0
220
0.0
230
0.0
  0
CIRCLE
  5
57C
100
AcDbEntity
  8
CK_LEVEL_1
  6
CONTINUOUS
 62
         2
100
AcDbCircle
 10
150.0
 20
-176.2016262
 30
-101.4406200488
 40
29.75
210
-1.0
220
0.0
230
0.0
  0
CIRCLE
  5
57D
100
AcDbEntity
  8
CK_LEVEL_1
  6
CONTINUOUS
 62
         2
100
AcDbCircle
 10
150.0
 20
-176.2016262
 30
-98.4406200488
 40
18.0
210
-1.0
220
0.0
230
0.0
  0
CIRCLE
  5
57E
100
AcDbEntity
  8
CK_LEVEL_1
  6
CONTINUOUS
 62
         2
100
AcDbCircle
 10
150.0
 20
-176.2016262
 30
-96.6406200488
 40
18.0
210
-1.0
220
0.0
230
0.0
  0
CIRCLE
  5
57F
100
AcDbEntity
  8
CK_LEVEL_1
  6
CONTINUOUS
 62
         2
100
AcDbCircle
 10
150.0
 20
-176.2016262
 30
-96.1406200488
 40
17.5
210
-1.0
220
0.0
230
0.0
  0
CIRCLE
  5
580
100
AcDbEntity
  8
CK_LEVEL_1
  6
CONTINUOUS
 62
         2
100
AcDbCircle
 10
150.0
 20
-176.2016262
 30
-96.1406200488
 40
13.95
210
-1.0
220
0.0
230
0.0
  0
CIRCLE
  5
581
100
AcDbEntity
  8
CK_LEVEL_1
  6
CONTINUOUS
 62
         2
100
AcDbCircle
 10
150.0
 20
-176.2016262
 30
-96.4406200488
 40
13.65
210
-1.0
220
0.0
230
0.0
  0
CIRCLE
  5
582
100
AcDbEntity
  8
CK_LEVEL_1
  6
CONTINUOUS
 62
         2
100
AcDbCircle
 10
150.0
 20
-176.2016262
 30
-97.6406200488
 40
13.65
210
-1.0
220
0.0
230
0.0
  0
CIRCLE
  5
583
100
AcDbEntity
  8
CK_LEVEL_1
  6
CONTINUOUS
 62
         2
100
AcDbCircle
 10
150.0
 20
-176.2016262
 30
-97.6406200488
 40
15.105425
210
-1.0
220
0.0
230
0.0
  0
CIRCLE
  5
584
100
AcDbEntity
  8
CK_LEVEL_1
  6
CONTINUOUS
 62
         2
100
AcDbCircle
 10
150.0
 20
-176.2016262
 30
-98.3351950488
 40
15.8
210
-1.0
220
0.0
230
0.0
  0
CIRCLE
  5
585
100
AcDbEntity
  8
CK_LEVEL_1
  6
CONTINUOUS
 62
         2
100
AcDbCircle
 10
150.0
 20
-176.2016262
 30
-99.7406200488
 40
15.8
210
-1.0
220
0.0
230
0.0
  0
CIRCLE
  5
586
100
AcDbEntity
  8
CK_LEVEL_1
  6
CONTINUOUS
 62
         2
100
AcDbCircle
 10
150.0
 20
-176.2016262
 30
-100.4406200488
 40
15.1
210
-1.0
220
0.0
230
0.0
  0
CIRCLE
  5
587
100
AcDbEntity
  8
CK_LEVEL_1
  6
CONTINUOUS
 62
         2
100
AcDbCircle
 10
150.0
 20
-176.2016262
 30
-100.4406200488
 40
13.65
210
-1.0
220
0.0
230
0.0
  0
CIRCLE
  5
588
100
AcDbEntity
  8
CK_LEVEL_1
  6
CONTINUOUS
 62
         2
100
AcDbCircle
 10
150.0
 20
-176.2016262
 30
-101.6406200488
 40
13.65
210
-1.0
220
0.0
230
0.0
  0
CIRCLE
  5
589
100
AcDbEntity
  8
CK_LEVEL_1
  6
CONTINUOUS
 62
         2
100
AcDbCircle
 10
150.0
 20
-176.2016262
 30
-101.9406200488
 40
13.95
210
-1.0
220
0.0
230
0.0
  0
CIRCLE
  5
58A
100
AcDbEntity
  8
CK_LEVEL_1
  6
CONTINUOUS
 62
         2
100
AcDbCircle
 10
150.0
 20
-176.2016262
 30
-101.9406200488
 40
29.25
210
-1.0
220
0.0
230
0.0
  0
ENDBLK
  5
58B
100
AcDbEntity
  8
0
  6
CONTINUOUS
100
AcDbBlockEnd
  0
BLOCK
  5
58F
100
AcDbEntity
  8
0
100
AcDbBlockBegin
  2
CKCOLL2330
 70
        64
 10
0.0
 20
0.0
 30
0.0
  3
CKCOLL2330
  1

  0
LINE
  5
590
100
AcDbEntity
  8
CK_LEVEL_1
  6
CONTINUOUS
 62
         2
100
AcDbLine
 10
247.015852759
 20
-138.5
 30
-221.059466789
 11
247.076861779
 21
-137.8
 31
-221.7568030776
  0
LINE
  5
591
100
AcDbEntity
  8
CK_LEVEL_1
  6
CONTINUOUS
 62
         2
100
AcDbLine
 10
258.4720917871
 20
-150.0
 30
-220.0571757474
 11
259.2304370957
 21
-150.0
 31
-220.6935030161
  0
LINE
  5
592
100
AcDbEntity
  8
CK_LEVEL_1
  6
CONTINUOUS
 62
         2
100
AcDbLine
 10
247.015852759
 20
-161.5
 30
-221.059466789
 11
247.076861779
 21
-162.2
 31
-221.7568030776
  0
LINE
  5
593
100
AcDbEntity
  8
CK_LEVEL_1
  6
CONTINUOUS
 62
         2
100
AcDbLine
 10
235.5524400375
 20
-150.0
 30
-222.0703071056
 11
234.9232864623
 21
-150.0
 31
-222.8201031391
  0
LINE
  5
594
100
AcDbEntity
  8
CK_LEVEL_1
  6
CONTINUOUS
 62
         2
100
AcDbLine
 10
247.076861779
 20
-137.8
 30
-221.7568030776
 11
248.3406200488
 21
-137.8
 31
-236.2016262
  0
LINE
  5
595
100
AcDbEntity
  8
CK_LEVEL_1
  6
CONTINUOUS
 62
         2
100
AcDbLine
 10
259.2304370957
 20
-150.0
 30
-220.6935030161
 11
260.4941953655
 21
-150.0
 31
-235.1383261384
  0
LINE
  5
596
100
AcDbEntity
  8
CK_LEVEL_1
  6
CONTINUOUS
 62
         2
100
AcDbLine
 10
247.076861779
 20
-162.2
 30
-221.7568030776
 11
248.3406200488
 21
-162.2
 31
-236.2016262
  0
LINE
  5
597
100
AcDbEntity
  8
CK_LEVEL_1
  6
CONTINUOUS
 62
         2
100
AcDbLine
 10
234.9232864623
 20
-150.0
 30
-222.8201031391
 11
236.1870447321
 21
-150.0
 31
-237.2649262615
  0
LINE
  5
598
100
AcDbEntity
  8
CK_LEVEL_1
  6
CONTINUOUS
 62
         2
100
AcDbLine
 10
233.6358480167
 20
-150.0
 30
-223.0204415897
 11
234.8919916246
 21
-150.0
 31
-237.378228727
  0
LINE
  5
599
100
AcDbEntity
  8
CK_LEVEL_1
  6
CONTINUOUS
 62
         2
100
AcDbLine
 10
247.084476441
 20
-136.5
 30
-221.8438390626
 11
248.3406200488
 21
-136.5
 31
-236.2016262
  0
LINE
  5
59A
100
AcDbEntity
  8
CK_LEVEL_1
  6
CONTINUOUS
 62
         2
100
AcDbLine
 10
260.5331048652
 20
-150.0
 30
-220.6672365355
 11
261.7892484731
 21
-150.0
 31
-235.0250236729
  0
LINE
  5
59B
100
AcDbEntity
  8
CK_LEVEL_1
  6
CONTINUOUS
 62
         2
100
AcDbLine
 10
247.084476441
 20
-163.5
 30
-221.8438390626
 11
248.3406200488
 21
-163.5
 31
-236.2016262
  0
CIRCLE
  5
59C
100
AcDbEntity
  8
CK_LEVEL_1
  6
CONTINUOUS
 62
         2
100
AcDbCircle
 10
150.0
 20
-88.0532508354
 30
-266.5066589741
 40
11.5
210
-0.9302699434252114
220
0.0
230
0.3668757723803168
  0
CIRCLE
  5
59D
100
AcDbEntity
  8
CK_LEVEL_1
  6
CONTINUOUS
 62
         2
100
AcDbCircle
 10
150.0
 20
19.3480465113
 30
-298.5715275961
 40
11.5
210
-0.730804335280693
220
0.0
230
0.6825870080326351
  0
CIRCLE
  5
59E
100
AcDbEntity
  8
CK_LEVEL_1
  6
CONTINUOUS
 62
         2
100
AcDbCircle
 10
150.0
 20
131.0240687598
 30
-288.9975771964
 40
11.5
210
-0.4294206718477283
220
0.0
230
0.9031045823102913
  0
ARC
  5
59F
100
AcDbEntity
  8
CK_LEVEL_1
  6
CONTINUOUS
 62
         2
100
AcDbCircle
 10
-197.2747415364
 20
-226.2016262
 30
-161.5
 40
50.0
210
0.0
220
1.0
230
0.0
100
AcDbArc
 50
90.0
 51
174.0977068394
  0
ARC
  5
5A0
100
AcDbEntity
  8
CK_LEVEL_1
  6
CONTINUOUS
 62
         2
100
AcDbCircle
 10
-197.2747415364
 20
-226.2016262
 30
-150.0
 40
61.5
210
0.0
220
1.0
230
0.0
100
AcDbArc
 50
90.0
 51
169.3194704503
  0
ARC
  5
5A1
100
AcDbEntity
  8
CK_LEVEL_1
  6
CONTINUOUS
 62
         2
100
AcDbCircle
 10
-197.2747415364
 20
-226.2016262
 30
-138.5
 40
50.0
210
0.0
220
1.0
230
0.0
100
AcDbArc
 50
90.0
 51
174.0977068394
  0
ARC
  5
5A2
100
AcDbEntity
  8
CK_LEVEL_1
  6
CONTINUOUS
 62
         2
100
AcDbCircle
 10
-197.2747415364
 20
-226.2016262
 30
-150.0
 40
38.5
210
0.0
220
1.0
230
0.0
100
AcDbArc
 50
90.0
 51
173.8399015516
  0
CIRCLE
  5
5A3
100
AcDbEntity
  8
CK_LEVEL_1
  6
CONTINUOUS
 62
         2
100
AcDbCircle
 10
150.0
 20
-86.8554897583
 30
-267.1237059244
 40
13.5
210
-0.9286136348826568
220
0.0
230
0.3710481331445015
  0
CIRCLE
  5
5A4
100
AcDbEntity
  8
CK_LEVEL_1
  6
CONTINUOUS
 62
         2
100
AcDbCircle
 10
150.0
 20
22.0298786038
 30
-298.8346895071
 40
13.5
210
-0.7246465657799623
220
0.0
230
0.6891207112714772
  0
CIRCLE
  5
5A5
100
AcDbEntity
  8
CK_LEVEL_1
  6
CONTINUOUS
 62
         2
100
AcDbCircle
 10
150.0
 20
134.9086175626
 30
-287.8802285801
 40
13.5
210
-0.4172197280256732
220
0.0
230
0.9088056439889574
  0
ARC
  5
5A6
100
AcDbEntity
  8
CK_LEVEL_1
  6
CONTINUOUS
 62
         2
100
AcDbCircle
 10
-197.2747415364
 20
-226.2016262
 30
-163.5
 40
50.0
210
0.0
220
1.0
230
0.0
100
AcDbArc
 50
90.0
 51
175.0
  0
ARC
  5
5A7
100
AcDbEntity
  8
CK_LEVEL_1
  6
CONTINUOUS
 62
         2
100
AcDbCircle
 10
-197.2747415364
 20
-226.2016262
 30
-150.0
 40
63.5
210
0.0
220
1.0
230
0.0
100
AcDbArc
 50
90.0
 51
175.0
  0
ARC
  5
5A8
100
AcDbEntity
  8
CK_LEVEL_1
  6
CONTINUOUS
 62
         2
100
AcDbCircle
 10
-197.2747415364
 20
-226.2016262
 30
-136.5
 40
50.0
210
0.0
220
1.0
230
0.0
100
AcDbArc
 50
90.0
 51
175.0
  0
ARC
  5
5A9
100
AcDbEntity
  8
CK_LEVEL_1
  6
CONTINUOUS
 62
         2
100
AcDbCircle
 10
-197.2747415364
 20
-226.2016262
 30
-150.0
 40
36.5
210
0.0
220
1.0
230
0.0
100
AcDbArc
 50
90.0
 51
175.0
  0
LINE
  5
5AA
100
AcDbEntity
  8
CK_LEVEL_1
  6
CONTINUOUS
 62
         2
100
AcDbLine
 10
98.4406200488
 20
-150.0
 30
-187.7016262
 11
197.2747415364
 21
-150.0
 31
-187.7016262
  0
LINE
  5
5AB
100
AcDbEntity
  8
CK_LEVEL_1
  6
CONTINUOUS
 62
         2
100
AcDbLine
 10
98.4406200488
 20
-138.5
 30
-176.2016262
 11
197.2747415364
 21
-138.5
 31
-176.2016262
  0
LINE
  5
5AC
100
AcDbEntity
  8
CK_LEVEL_1
  6
CONTINUOUS
 62
         2
100
AcDbLine
 10
98.4406200488
 20
-150.0
 30
-164.7016262
 11
197.2747415364
 21
-150.0
 31
-164.7016262
  0
LINE
  5
5AD
100
AcDbEntity
  8
CK_LEVEL_1
  6
CONTINUOUS
 62
         2
100
AcDbLine
 10
98.4406200488
 20
-161.5
 30
-176.2016262
 11
197.2747415364
 21
-161.5
 31
-176.2016262
  0
LINE
  5
5AE
100
AcDbEntity
  8
CK_LEVEL_1
  6
CONTINUOUS
 62
         2
100
AcDbLine
 10
98.4406200488
 20
-150.0
 30
-189.7016262
 11
197.2747415364
 21
-150.0
 31
-189.7016262
  0
LINE
  5
5AF
100
AcDbEntity
  8
CK_LEVEL_1
  6
CONTINUOUS
 62
         2
100
AcDbLine
 10
98.4406200488
 20
-136.5
 30
-176.2016262
 11
197.2747415364
 21
-136.5
 31
-176.2016262
  0
LINE
  5
5B0
100
AcDbEntity
  8
CK_LEVEL_1
  6
CONTINUOUS
 62
         2
100
AcDbLine
 10
98.4406200488
 20
-150.0
 30
-162.7016262
 11
197.2747415364
 21
-150.0
 31
-162.7016262
  0
LINE
  5
5B1
100
AcDbEntity
  8
CK_LEVEL_1
  6
CONTINUOUS
 62
         2
100
AcDbLine
 10
98.4406200488
 20
-163.5
 30
-176.2016262
 11
197.2747415364
 21
-163.5
 31
-176.2016262
  0
CIRCLE
  5
5B2
100
AcDbEntity
  8
CK_LEVEL_1
  6
CONTINUOUS
 62
         2
100
AcDbCircle
 10
150.0
 20
-176.2016262
 30
-98.4406200488
 40
11.5
210
-1.0
220
0.0
230
0.0
  0
CIRCLE
  5
5B3
100
AcDbEntity
  8
CK_LEVEL_1
  6
CONTINUOUS
 62
         2
100
AcDbCircle
 10
-150.0
 20
-176.2016262
 30
98.4406200488
 40
13.5
210
1.0
220
0.0
230
0.0
  0
POLYLINE
  5
5B5
100
AcDbEntity
  8
CK_LEVEL_1
  6
CONTINUOUS
 62
         2
100
AcDb3dPolyline
 66
         1
 10
0.0
 20
0.0
 30
-221.0597369488
 70
         8
  0
VERTEX
  5
5B7
100
AcDbEntity
  8
CK_LEVEL_1
  6
CONTINUOUS
 62
         2
100
AcDbVertex
100
AcDb3dPolylineVertex
 10
247.0127648174
 20
-161.4999995822
 30
-221.0597369488
 70
        32
  0
VERTEX
  5
5B9
100
AcDbEntity
  8
CK_LEVEL_1
  6
CONTINUOUS
 62
         2
100
AcDbVertex
100
AcDb3dPolylineVertex
 10
246.9574986867
 20
-161.4998807394
 30
-221.0646021607
 70
        32
  0
VERTEX
  5
5BB
100
AcDbEntity
  8
CK_LEVEL_1
  6
CONTINUOUS
 62
         2
100
AcDbVertex
100
AcDb3dPolylineVertex
 10
246.9022233676
 20
-161.4994942097
 30
-221.0694682437
 70
        32
  0
VERTEX
  5
5BD
100
AcDbEntity
  8
CK_LEVEL_1
  6
CONTINUOUS
 62
         2
100
AcDbVertex
100
AcDb3dPolylineVertex
 10
246.8469398119
 20
-161.4988398454
 30
-221.0743351141
 70
        32
  0
VERTEX
  5
5BF
100
AcDbEntity
  8
CK_LEVEL_1
  6
CONTINUOUS
 62
         2
100
AcDbVertex
100
AcDb3dPolylineVertex
 10
246.7916489712
 20
-161.4979174985
 30
-221.0792026885
 70
        32
  0
VERTEX
  5
5C1
100
AcDbEntity
  8
CK_LEVEL_1
  6
CONTINUOUS
 62
         2
100
AcDbVertex
100
AcDb3dPolylineVertex
 10
246.7363517971
 20
-161.4967270211
 30
-221.0840708833
 70
        32
  0
VERTEX
  5
5C3
100
AcDbEntity
  8
CK_LEVEL_1
  6
CONTINUOUS
 62
         2
100
AcDbVertex
100
AcDb3dPolylineVertex
 10
246.6810492413
 20
-161.4952682652
 30
-221.0889396148
 70
        32
  0
VERTEX
  5
5C5
100
AcDbEntity
  8
CK_LEVEL_1
  6
CONTINUOUS
 62
         2
100
AcDbVertex
100
AcDb3dPolylineVertex
 10
246.6257422556
 20
-161.493541083
 30
-221.0938087996
 70
        32
  0
VERTEX
  5
5C7
100
AcDbEntity
  8
CK_LEVEL_1
  6
CONTINUOUS
 62
         2
100
AcDbVertex
100
AcDb3dPolylineVertex
 10
246.5704317916
 20
-161.4915453265
 30
-221.0986783541
 70
        32
  0
VERTEX
  5
5C9
100
AcDbEntity
  8
CK_LEVEL_1
  6
CONTINUOUS
 62
         2
100
AcDbVertex
100
AcDb3dPolylineVertex
 10
246.5151188009
 20
-161.4892808478
 30
-221.1035481947
 70
        32
  0
VERTEX
  5
5CB
100
AcDbEntity
  8
CK_LEVEL_1
  6
CONTINUOUS
 62
         2
100
AcDbVertex
100
AcDb3dPolylineVertex
 10
245.9191114509
 20
-161.4477823194
 30
-221.1560258063
 70
        32
  0
VERTEX
  5
5CD
100
AcDbEntity
  8
CK_LEVEL_1
  6
CONTINUOUS
 62
         2
100
AcDbVertex
100
AcDb3dPolylineVertex
 10
245.4058995598
 20
-161.3867699134
 30
-221.2012196216
 70
        32
  0
VERTEX
  5
5CF
100
AcDbEntity
  8
CK_LEVEL_1
  6
CONTINUOUS
 62
         2
100
AcDbVertex
100
AcDb3dPolylineVertex
 10
244.8177557911
 20
-161.2875729014
 30
-221.2530191756
 70
        32
  0
VERTEX
  5
5D1
100
AcDbEntity
  8
CK_LEVEL_1
  6
CONTINUOUS
 62
         2
100
AcDbVertex
100
AcDb3dPolylineVertex
 10
244.338935544
 20
-161.1831778038
 30
-221.2951960613
 70
        32
  0
VERTEX
  5
5D3
100
AcDbEntity
  8
CK_LEVEL_1
  6
CONTINUOUS
 62
         2
100
AcDbVertex
100
AcDb3dPolylineVertex
 10
243.8197850406
 20
-161.0452750036
 30
-221.3409314537
 70
        32
  0
VERTEX
  5
5D5
100
AcDbEntity
  8
CK_LEVEL_1
  6
CONTINUOUS
 62
         2
100
AcDbVertex
100
AcDb3dPolylineVertex
 10
243.2987740106
 20
-160.8800634855
 30
-221.386837254
 70
        32
  0
VERTEX
  5
5D7
100
AcDbEntity
  8
CK_LEVEL_1
  6
CONTINUOUS
 62
         2
100
AcDbVertex
100
AcDb3dPolylineVertex
 10
242.830744686
 20
-160.7077286012
 30
-221.4280806642
 70
        32
  0
VERTEX
  5
5D9
100
AcDbEntity
  8
CK_LEVEL_1
  6
CONTINUOUS
 62
         2
100
AcDbVertex
100
AcDb3dPolylineVertex
 10
242.3572710392
 20
-160.5091727721
 30
-221.4698096639
 70
        32
  0
VERTEX
  5
5DB
100
AcDbEntity
  8
CK_LEVEL_1
  6
CONTINUOUS
 62
         2
100
AcDbVertex
100
AcDb3dPolylineVertex
 10
242.2012766227
 20
-160.4381903301
 30
-221.4835593697
 70
        32
  0
VERTEX
  5
5DD
100
AcDbEntity
  8
CK_LEVEL_1
  6
CONTINUOUS
 62
         2
100
AcDbVertex
100
AcDb3dPolylineVertex
 10
241.6683044614
 20
-160.1737761538
 30
-221.5305419025
 70
        32
  0
VERTEX
  5
5DF
100
AcDbEntity
  8
CK_LEVEL_1
  6
CONTINUOUS
 62
         2
100
AcDbVertex
100
AcDb3dPolylineVertex
 10
241.2188252713
 20
-159.9229278949
 30
-221.5701705925
 70
        32
  0
VERTEX
  5
5E1
100
AcDbEntity
  8
CK_LEVEL_1
  6
CONTINUOUS
 62
         2
100
AcDbVertex
100
AcDb3dPolylineVertex
 10
240.7146606657
 20
-159.608618665
 30
-221.6146275245
 70
        32
  0
VERTEX
  5
5E3
100
AcDbEntity
  8
CK_LEVEL_1
  6
CONTINUOUS
 62
         2
100
AcDbVertex
100
AcDb3dPolylineVertex
 10
240.3130368983
 20
-159.3310618552
 30
-221.6500477445
 70
        32
  0
VERTEX
  5
5E5
100
AcDbEntity
  8
CK_LEVEL_1
  6
CONTINUOUS
 62
         2
100
AcDbVertex
100
AcDb3dPolylineVertex
 10
239.8868083376
 20
-159.0074623838
 30
-221.6876431628
 70
        32
  0
VERTEX
  5
5E7
100
AcDbEntity
  8
CK_LEVEL_1
  6
CONTINUOUS
 62
         2
100
AcDbVertex
100
AcDb3dPolylineVertex
 10
239.4690524573
 20
-158.6581076951
 30
-221.7244966404
 70
        32
  0
VERTEX
  5
5E9
100
AcDbEntity
  8
CK_LEVEL_1
  6
CONTINUOUS
 62
         2
100
AcDbVertex
100
AcDb3dPolylineVertex
 10
239.1026943903
 20
-158.3223302404
 30
-221.7568204764
 70
        32
  0
VERTEX
  5
5EB
100
AcDbEntity
  8
CK_LEVEL_1
  6
CONTINUOUS
 62
         2
100
AcDbVertex
100
AcDb3dPolylineVertex
 10
238.7410940156
 20
-157.9604251878
 30
-221.7887289067
 70
        32
  0
VERTEX
  5
5ED
100
AcDbEntity
  8
CK_LEVEL_1
  6
CONTINUOUS
 62
         2
100
AcDbVertex
100
AcDb3dPolylineVertex
 10
238.6240298195
 20
-157.8360819526
 30
-221.7990598819
 70
        32
  0
VERTEX
  5
5EF
100
AcDbEntity
  8
CK_LEVEL_1
  6
CONTINUOUS
 62
         2
100
AcDbVertex
100
AcDb3dPolylineVertex
 10
238.2313588578
 20
-157.3901288122
 30
-221.8337167364
 70
        32
  0
VERTEX
  5
5F1
100
AcDbEntity
  8
CK_LEVEL_1
  6
CONTINUOUS
 62
         2
100
AcDbVertex
100
AcDb3dPolylineVertex
 10
237.9106183809
 20
-156.9883564852
 30
-221.8620290167
 70
        32
  0
VERTEX
  5
5F3
100
AcDbEntity
  8
CK_LEVEL_1
  6
CONTINUOUS
 62
         2
100
AcDbVertex
100
AcDb3dPolylineVertex
 10
237.5631707632
 20
-156.5073293515
 30
-221.8927028973
 70
        32
  0
VERTEX
  5
5F5
100
AcDbEntity
  8
CK_LEVEL_1
  6
CONTINUOUS
 62
         2
100
AcDbVertex
100
AcDb3dPolylineVertex
 10
237.2965467329
 20
-156.0990778192
 30
-221.9162443673
 70
        32
  0
VERTEX
  5
5F7
100
AcDbEntity
  8
CK_LEVEL_1
  6
CONTINUOUS
 62
         2
100
AcDbVertex
100
AcDb3dPolylineVertex
 10
237.0244401167
 20
-155.6390328533
 30
-221.9402726519
 70
        32
  0
VERTEX
  5
5F9
100
AcDbEntity
  8
CK_LEVEL_1
  6
CONTINUOUS
 62
         2
100
AcDbVertex
100
AcDb3dPolylineVertex
 10
236.7697686971
 20
-155.1584415832
 30
-221.9627638831
 70
        32
  0
VERTEX
  5
5FB
100
AcDbEntity
  8
CK_LEVEL_1
  6
CONTINUOUS
 62
         2
100
AcDbVertex
100
AcDb3dPolylineVertex
 10
236.5574146895
 20
-154.7098511758
 30
-221.9815197868
 70
        32
  0
VERTEX
  5
5FD
100
AcDbEntity
  8
CK_LEVEL_1
  6
CONTINUOUS
 62
         2
100
AcDbVertex
100
AcDb3dPolylineVertex
 10
236.3592054203
 20
-154.2389557797
 30
-221.9990279601
 70
        32
  0
VERTEX
  5
5FF
100
AcDbEntity
  8
CK_LEVEL_1
  6
CONTINUOUS
 62
         2
100
AcDbVertex
100
AcDb3dPolylineVertex
 10
236.2977187856
 20
-154.0798827502
 30
-222.0044594909
 70
        32
  0
VERTEX
  5
601
100
AcDbEntity
  8
CK_LEVEL_1
  6
CONTINUOUS
 62
         2
100
AcDbVertex
100
AcDb3dPolylineVertex
 10
236.1009229378
 20
-153.515512369
 30
-222.0218446258
 70
        32
  0
VERTEX
  5
603
100
AcDbEntity
  8
CK_LEVEL_1
  6
CONTINUOUS
 62
         2
100
AcDbVertex
100
AcDb3dPolylineVertex
 10
235.9544655563
 20
-153.0196052231
 30
-222.0347836631
 70
        32
  0
VERTEX
  5
605
100
AcDbEntity
  8
CK_LEVEL_1
  6
CONTINUOUS
 62
         2
100
AcDbVertex
100
AcDb3dPolylineVertex
 10
235.8132613522
 20
-152.4397776442
 30
-222.0472594178
 70
        32
  0
VERTEX
  5
607
100
AcDbEntity
  8
CK_LEVEL_1
  6
CONTINUOUS
 62
         2
100
AcDbVertex
100
AcDb3dPolylineVertex
 10
235.7198089884
 20
-151.9584261219
 30
-222.0555167169
 70
        32
  0
VERTEX
  5
609
100
AcDbEntity
  8
CK_LEVEL_1
  6
CONTINUOUS
 62
         2
100
AcDbVertex
100
AcDb3dPolylineVertex
 10
235.640970338
 20
-151.4268002659
 30
-222.0624832134
 70
        32
  0
VERTEX
  5
60B
100
AcDbEntity
  8
CK_LEVEL_1
  6
CONTINUOUS
 62
         2
100
AcDbVertex
100
AcDb3dPolylineVertex
 10
235.5862439353
 20
-150.8827063282
 30
-222.0673194048
 70
        32
  0
VERTEX
  5
60D
100
AcDbEntity
  8
CK_LEVEL_1
  6
CONTINUOUS
 62
         2
100
AcDbVertex
100
AcDb3dPolylineVertex
 10
235.5588469849
 20
-150.3845126902
 30
-222.0697406979
 70
        32
  0
VERTEX
  5
60F
100
AcDbEntity
  8
CK_LEVEL_1
  6
CONTINUOUS
 62
         2
100
AcDbVertex
100
AcDb3dPolylineVertex
 10
235.5531611969
 20
-149.8709753662
 30
-222.0702433587
 70
        32
  0
VERTEX
  5
611
100
AcDbEntity
  8
CK_LEVEL_1
  6
CONTINUOUS
 62
         2
100
AcDbVertex
100
AcDb3dPolylineVertex
 10
235.5563500488
 20
-149.6995863447
 30
-222.0699615847
 70
        32
  0
VERTEX
  5
613
100
AcDbEntity
  8
CK_LEVEL_1
  6
CONTINUOUS
 62
         2
100
AcDbVertex
100
AcDb3dPolylineVertex
 10
235.5877175662
 20
-149.098264175
 30
-222.0671895351
 70
        32
  0
VERTEX
  5
615
100
AcDbEntity
  8
CK_LEVEL_1
  6
CONTINUOUS
 62
         2
100
AcDbVertex
100
AcDb3dPolylineVertex
 10
235.6401149966
 20
-148.5800664748
 30
-222.0625591112
 70
        32
  0
VERTEX
  5
617
100
AcDbEntity
  8
CK_LEVEL_1
  6
CONTINUOUS
 62
         2
100
AcDbVertex
100
AcDb3dPolylineVertex
 10
235.7295627364
 20
-147.9857434279
 30
-222.0546549919
 70
        32
  0
VERTEX
  5
619
100
AcDbEntity
  8
CK_LEVEL_1
  6
CONTINUOUS
 62
         2
100
AcDbVertex
100
AcDb3dPolylineVertex
 10
235.8261187365
 20
-147.5015231136
 30
-222.046123327
 70
        32
  0
VERTEX
  5
61B
100
AcDbEntity
  8
CK_LEVEL_1
  6
CONTINUOUS
 62
         2
100
AcDbVertex
100
AcDb3dPolylineVertex
 10
235.9556227815
 20
-146.9761382628
 30
-222.0346811745
 70
        32
  0
VERTEX
  5
61D
100
AcDbEntity
  8
CK_LEVEL_1
  6
CONTINUOUS
 62
         2
100
AcDbVertex
100
AcDb3dPolylineVertex
 10
236.1125126934
 20
-146.4484659288
 30
-222.0208204263
 70
        32
  0
VERTEX
  5
61F
100
AcDbEntity
  8
CK_LEVEL_1
  6
CONTINUOUS
 62
         2
100
AcDbVertex
100
AcDb3dPolylineVertex
 10
236.2774661923
 20
-145.9740979279
 30
-222.0062483649
 70
        32
  0
VERTEX
  5
621
100
AcDbEntity
  8
CK_LEVEL_1
  6
CONTINUOUS
 62
         2
100
AcDbVertex
100
AcDb3dPolylineVertex
 10
236.468648267
 20
-145.4938588513
 30
-221.9893604943
 70
        32
  0
VERTEX
  5
623
100
AcDbEntity
  8
CK_LEVEL_1
  6
CONTINUOUS
 62
         2
100
AcDbVertex
100
AcDb3dPolylineVertex
 10
236.537222496
 20
-145.3355553571
 30
-221.9833033595
 70
        32
  0
VERTEX
  5
625
100
AcDbEntity
  8
CK_LEVEL_1
  6
CONTINUOUS
 62
         2
100
AcDbVertex
100
AcDb3dPolylineVertex
 10
236.7949281283
 20
-144.7915427441
 30
-221.9605418939
 70
        32
  0
VERTEX
  5
627
100
AcDbEntity
  8
CK_LEVEL_1
  6
CONTINUOUS
 62
         2
100
AcDbVertex
100
AcDb3dPolylineVertex
 10
237.0404721131
 20
-144.3324579481
 30
-221.9388569667
 70
        32
  0
VERTEX
  5
629
100
AcDbEntity
  8
CK_LEVEL_1
  6
CONTINUOUS
 62
         2
100
AcDbVertex
100
AcDb3dPolylineVertex
 10
237.3492370403
 20
-143.8171865305
 30
-221.9115919901
 70
        32
  0
VERTEX
  5
62B
100
AcDbEntity
  8
CK_LEVEL_1
  6
CONTINUOUS
 62
         2
100
AcDbVertex
100
AcDb3dPolylineVertex
 10
237.6227020485
 20
-143.4064526855
 30
-221.8874470563
 70
        32
  0
VERTEX
  5
62D
100
AcDbEntity
  8
CK_LEVEL_1
  6
CONTINUOUS
 62
         2
100
AcDbVertex
100
AcDb3dPolylineVertex
 10
237.9422961998
 20
-142.9702883955
 30
-221.8592326808
 70
        32
  0
VERTEX
  5
62F
100
AcDbEntity
  8
CK_LEVEL_1
  6
CONTINUOUS
 62
         2
100
AcDbVertex
100
AcDb3dPolylineVertex
 10
238.2880885181
 20
-142.5425109604
 30
-221.8287095404
 70
        32
  0
VERTEX
  5
631
100
AcDbEntity
  8
CK_LEVEL_1
  6
CONTINUOUS
 62
         2
100
AcDbVertex
100
AcDb3dPolylineVertex
 10
238.6210646436
 20
-142.1671171504
 30
-221.7993215898
 70
        32
  0
VERTEX
  5
633
100
AcDbEntity
  8
CK_LEVEL_1
  6
CONTINUOUS
 62
         2
100
AcDbVertex
100
AcDb3dPolylineVertex
 10
238.9805304445
 20
-141.7963534762
 30
-221.7675999177
 70
        32
  0
VERTEX
  5
635
100
AcDbEntity
  8
CK_LEVEL_1
  6
CONTINUOUS
 62
         2
100
AcDbVertex
100
AcDb3dPolylineVertex
 10
239.1041591829
 20
-141.6762670209
 30
-221.7566910871
 70
        32
  0
VERTEX
  5
637
100
AcDbEntity
  8
CK_LEVEL_1
  6
CONTINUOUS
 62
         2
100
AcDbVertex
100
AcDb3dPolylineVertex
 10
239.5471224181
 20
-141.2740084267
 30
-221.7176088386
 70
        32
  0
VERTEX
  5
639
100
AcDbEntity
  8
CK_LEVEL_1
  6
CONTINUOUS
 62
         2
100
AcDbVertex
100
AcDb3dPolylineVertex
 10
239.9466905379
 20
-140.9451525611
 30
-221.6823607627
 70
        32
  0
VERTEX
  5
63B
100
AcDbEntity
  8
CK_LEVEL_1
  6
CONTINUOUS
 62
         2
100
AcDbVertex
100
AcDb3dPolylineVertex
 10
240.4256066699
 20
-140.5885746201
 30
-221.6401194434
 70
        32
  0
VERTEX
  5
63D
100
AcDbEntity
  8
CK_LEVEL_1
  6
CONTINUOUS
 62
         2
100
AcDbVertex
100
AcDb3dPolylineVertex
 10
240.8324641658
 20
-140.3146602194
 30
-221.604239165
 70
        32
  0
VERTEX
  5
63F
100
AcDbEntity
  8
CK_LEVEL_1
  6
CONTINUOUS
 62
         2
100
AcDbVertex
100
AcDb3dPolylineVertex
 10
241.2913259927
 20
-140.0348044037
 30
-221.5637783785
 70
        32
  0
VERTEX
  5
641
100
AcDbEntity
  8
CK_LEVEL_1
  6
CONTINUOUS
 62
         2
100
AcDbVertex
100
AcDb3dPolylineVertex
 10
241.7710745846
 20
-139.7725305625
 30
-221.5214821728
 70
        32
  0
VERTEX
  5
643
100
AcDbEntity
  8
CK_LEVEL_1
  6
CONTINUOUS
 62
         2
100
AcDbVertex
100
AcDb3dPolylineVertex
 10
242.2192053936
 20
-139.5535083678
 30
-221.4819792113
 70
        32
  0
VERTEX
  5
645
100
AcDbEntity
  8
CK_LEVEL_1
  6
CONTINUOUS
 62
         2
100
AcDbVertex
100
AcDb3dPolylineVertex
 10
242.6899269656
 20
-139.3487217355
 30
-221.4404907406
 70
        32
  0
VERTEX
  5
647
100
AcDbEntity
  8
CK_LEVEL_1
  6
CONTINUOUS
 62
         2
100
AcDbVertex
100
AcDb3dPolylineVertex
 10
242.8490079362
 20
-139.2851076631
 30
-221.4264710119
 70
        32
  0
VERTEX
  5
649
100
AcDbEntity
  8
CK_LEVEL_1
  6
CONTINUOUS
 62
         2
100
AcDbVertex
100
AcDb3dPolylineVertex
 10
243.2946058771
 20
-139.1213675304
 30
-221.3872042558
 70
        32
  0
VERTEX
  5
64B
100
AcDbEntity
  8
CK_LEVEL_1
  6
CONTINUOUS
 62
         2
100
AcDbVertex
100
AcDb3dPolylineVertex
 10
243.7458607116
 20
-138.9765024197
 30
-221.3474441762
 70
        32
  0
VERTEX
  5
64D
100
AcDbEntity
  8
CK_LEVEL_1
  6
CONTINUOUS
 62
         2
100
AcDbVertex
100
AcDb3dPolylineVertex
 10
244.2021739546
 20
-138.8506201066
 30
-221.3072434681
 70
        32
  0
VERTEX
  5
64F
100
AcDbEntity
  8
CK_LEVEL_1
  6
CONTINUOUS
 62
         2
100
AcDbVertex
100
AcDb3dPolylineVertex
 10
244.6629471208
 20
-138.743828367
 30
-221.2666548267
 70
        32
  0
VERTEX
  5
651
100
AcDbEntity
  8
CK_LEVEL_1
  6
CONTINUOUS
 62
         2
100
AcDbVertex
100
AcDb3dPolylineVertex
 10
245.127581725
 20
-138.6562349763
 30
-221.2257309472
 70
        32
  0
VERTEX
  5
653
100
AcDbEntity
  8
CK_LEVEL_1
  6
CONTINUOUS
 62
         2
100
AcDbVertex
100
AcDb3dPolylineVertex
 10
245.595479282
 20
-138.5879477104
 30
-221.1845245245
 70
        32
  0
VERTEX
  5
655
100
AcDbEntity
  8
CK_LEVEL_1
  6
CONTINUOUS
 62
         2
100
AcDbVertex
100
AcDb3dPolylineVertex
 10
246.0660413066
 20
-138.5390743449
 30
-221.1430882538
 70
        32
  0
VERTEX
  5
657
100
AcDbEntity
  8
CK_LEVEL_1
  6
CONTINUOUS
 62
         2
100
AcDbVertex
100
AcDb3dPolylineVertex
 10
246.5386693134
 20
-138.5097226554
 30
-221.1014748302
 70
        32
  0
VERTEX
  5
659
100
AcDbEntity
  8
CK_LEVEL_1
  6
CONTINUOUS
 62
         2
100
AcDbVertex
100
AcDb3dPolylineVertex
 10
247.0127648174
 20
-138.5000004178
 30
-221.0597369488
 70
        32
  0
SEQEND
  5
65B
100
AcDbEntity
  8
CK_LEVEL_1
  6
CONTINUOUS
 62
         2
  0
ARC
  5
65C
100
AcDbEntity
  8
CK_LEVEL_1
  6
CONTINUOUS
 62
         2
100
AcDbCircle
 10
-150.0
 20
226.8092808438
 30
241.7471188958
 40
11.5
210
0.0871557427476469
220
0.0
230
-0.9961946980917467
100
AcDbArc
 50
359.984556362
 51
540.015443638
  0
CIRCLE
  5
65D
100
AcDbEntity
  8
CK_LEVEL_1
  6
CONTINUOUS
 62
         2
100
AcDbCircle
 10
-150.0
 20
226.8092808438
 30
242.4471188958
 40
12.2
210
0.0871557427476469
220
0.0
230
-0.9961946980917467
  0
POLYLINE
  5
65F
100
AcDbEntity
  8
CK_LEVEL_1
  6
CONTINUOUS
 62
         2
100
AcDb3dPolyline
 66
         1
 10
0.0
 20
0.0
 30
-215.7957831289
 70
         8
  0
VERTEX
  5
661
100
AcDbEntity
  8
CK_LEVEL_1
  6
CONTINUOUS
 62
         2
100
AcDbVertex
100
AcDb3dPolylineVertex
 10
246.3693520966
 20
-138.5014926525
 30
-215.7957831289
 70
        32
  0
VERTEX
  5
663
100
AcDbEntity
  8
CK_LEVEL_1
  6
CONTINUOUS
 62
         2
100
AcDbVertex
100
AcDb3dPolylineVertex
 10
246.4695970743
 20
-138.5035398684
 30
-215.7870128298
 70
        32
  0
VERTEX
  5
665
100
AcDbEntity
  8
CK_LEVEL_1
  6
CONTINUOUS
 62
         2
100
AcDbVertex
100
AcDb3dPolylineVertex
 10
246.5705409754
 20
-138.5064828718
 30
-215.7781813828
 70
        32
  0
VERTEX
  5
667
100
AcDbEntity
  8
CK_LEVEL_1
  6
CONTINUOUS
 62
         2
100
AcDbVertex
100
AcDb3dPolylineVertex
 10
246.6721353536
 20
-138.5103345468
 30
-215.7692930264
 70
        32
  0
VERTEX
  5
669
100
AcDbEntity
  8
CK_LEVEL_1
  6
CONTINUOUS
 62
         2
100
AcDbVertex
100
AcDb3dPolylineVertex
 10
246.7743317628
 20
-138.5151077774
 30
-215.7603519992
 70
        32
  0
VERTEX
  5
66B
100
AcDbEntity
  8
CK_LEVEL_1
  6
CONTINUOUS
 62
         2
100
AcDbVertex
100
AcDb3dPolylineVertex
 10
246.8770817566
 20
-138.5208154476
 30
-215.7513625395
 70
        32
  0
VERTEX
  5
66D
100
AcDbEntity
  8
CK_LEVEL_1
  6
CONTINUOUS
 62
         2
100
AcDbVertex
100
AcDb3dPolylineVertex
 10
246.9803368889
 20
-138.5274704414
 30
-215.742328886
 70
        32
  0
VERTEX
  5
66F
100
AcDbEntity
  8
CK_LEVEL_1
  6
CONTINUOUS
 62
         2
100
AcDbVertex
100
AcDb3dPolylineVertex
 10
247.0840487135
 20
-138.535085643
 30
-215.7332552771
 70
        32
  0
VERTEX
  5
671
100
AcDbEntity
  8
CK_LEVEL_1
  6
CONTINUOUS
 62
         2
100
AcDbVertex
100
AcDb3dPolylineVertex
 10
247.1881687842
 20
-138.5436739363
 30
-215.7241459512
 70
        32
  0
VERTEX
  5
673
100
AcDbEntity
  8
CK_LEVEL_1
  6
CONTINUOUS
 62
         2
100
AcDbVertex
100
AcDb3dPolylineVertex
 10
247.2926486548
 20
-138.5532482053
 30
-215.715005147
 70
        32
  0
VERTEX
  5
675
100
AcDbEntity
  8
CK_LEVEL_1
  6
CONTINUOUS
 62
         2
100
AcDbVertex
100
AcDb3dPolylineVertex
 10
247.4193119748
 20
-138.566151034
 30
-215.7039235424
 70
        32
  0
VERTEX
  5
677
100
AcDbEntity
  8
CK_LEVEL_1
  6
CONTINUOUS
 62
         2
100
AcDbVertex
100
AcDb3dPolylineVertex
 10
247.5463468107
 20
-138.5805174456
 30
-215.6928094344
 70
        32
  0
VERTEX
  5
679
100
AcDbEntity
  8
CK_LEVEL_1
  6
CONTINUOUS
 62
         2
100
AcDbVertex
100
AcDb3dPolylineVertex
 10
247.673670235
 20
-138.5963453037
 30
-215.6816700782
 70
        32
  0
VERTEX
  5
67B
100
AcDbEntity
  8
CK_LEVEL_1
  6
CONTINUOUS
 62
         2
100
AcDbVertex
100
AcDb3dPolylineVertex
 10
247.8011993202
 20
-138.6136324721
 30
-215.6705127289
 70
        32
  0
VERTEX
  5
67D
100
AcDbEntity
  8
CK_LEVEL_1
  6
CONTINUOUS
 62
         2
100
AcDbVertex
100
AcDb3dPolylineVertex
 10
247.9288511388
 20
-138.6323768143
 30
-215.6593446419
 70
        32
  0
VERTEX
  5
67F
100
AcDbEntity
  8
CK_LEVEL_1
  6
CONTINUOUS
 62
         2
100
AcDbVertex
100
AcDb3dPolylineVertex
 10
248.0565427634
 20
-138.6525761939
 30
-215.6481730724
 70
        32
  0
VERTEX
  5
681
100
AcDbEntity
  8
CK_LEVEL_1
  6
CONTINUOUS
 62
         2
100
AcDbVertex
100
AcDb3dPolylineVertex
 10
248.1841912663
 20
-138.6742284746
 30
-215.6370052754
 70
        32
  0
VERTEX
  5
683
100
AcDbEntity
  8
CK_LEVEL_1
  6
CONTINUOUS
 62
         2
100
AcDbVertex
100
AcDb3dPolylineVertex
 10
248.3117137202
 20
-138.6973315201
 30
-215.6258485064
 70
        32
  0
VERTEX
  5
685
100
AcDbEntity
  8
CK_LEVEL_1
  6
CONTINUOUS
 62
         2
100
AcDbVertex
100
AcDb3dPolylineVertex
 10
248.4390271975
 20
-138.7218831939
 30
-215.6147100204
 70
        32
  0
VERTEX
  5
687
100
AcDbEntity
  8
CK_LEVEL_1
  6
CONTINUOUS
 62
         2
100
AcDbVertex
100
AcDb3dPolylineVertex
 10
248.5660556779
 20
-138.7478780587
 30
-215.6035964684
 70
        32
  0
VERTEX
  5
689
100
AcDbEntity
  8
CK_LEVEL_1
  6
CONTINUOUS
 62
         2
100
AcDbVertex
100
AcDb3dPolylineVertex
 10
248.692726705
 20
-138.775292572
 30
-215.5925141895
 70
        32
  0
VERTEX
  5
68B
100
AcDbEntity
  8
CK_LEVEL_1
  6
CONTINUOUS
 62
         2
100
AcDbVertex
100
AcDb3dPolylineVertex
 10
248.8189626971
 20
-138.8040974398
 30
-215.5814699713
 70
        32
  0
VERTEX
  5
68D
100
AcDbEntity
  8
CK_LEVEL_1
  6
CONTINUOUS
 62
         2
100
AcDbVertex
100
AcDb3dPolylineVertex
 10
248.9446860725
 20
-138.8342633679
 30
-215.5704706012
 70
        32
  0
VERTEX
  5
68F
100
AcDbEntity
  8
CK_LEVEL_1
  6
CONTINUOUS
 62
         2
100
AcDbVertex
100
AcDb3dPolylineVertex
 10
249.0698192495
 20
-138.8657610623
 30
-215.5595228668
 70
        32
  0
VERTEX
  5
691
100
AcDbEntity
  8
CK_LEVEL_1
  6
CONTINUOUS
 62
         2
100
AcDbVertex
100
AcDb3dPolylineVertex
 10
249.1942846463
 20
-138.8985612288
 30
-215.5486335556
 70
        32
  0
VERTEX
  5
693
100
AcDbEntity
  8
CK_LEVEL_1
  6
CONTINUOUS
 62
         2
100
AcDbVertex
100
AcDb3dPolylineVertex
 10
249.3180046813
 20
-138.9326345735
 30
-215.5378094551
 70
        32
  0
VERTEX
  5
695
100
AcDbEntity
  8
CK_LEVEL_1
  6
CONTINUOUS
 62
         2
100
AcDbVertex
100
AcDb3dPolylineVertex
 10
249.4409017727
 20
-138.9679518022
 30
-215.5270573528
 70
        32
  0
VERTEX
  5
697
100
AcDbEntity
  8
CK_LEVEL_1
  6
CONTINUOUS
 62
         2
100
AcDbVertex
100
AcDb3dPolylineVertex
 10
249.5628983389
 20
-139.0044836208
 30
-215.5163840363
 70
        32
  0
VERTEX
  5
699
100
AcDbEntity
  8
CK_LEVEL_1
  6
CONTINUOUS
 62
         2
100
AcDbVertex
100
AcDb3dPolylineVertex
 10
249.6839182551
 20
-139.0421959302
 30
-215.5057961655
 70
        32
  0
VERTEX
  5
69B
100
AcDbEntity
  8
CK_LEVEL_1
  6
CONTINUOUS
 62
         2
100
AcDbVertex
100
AcDb3dPolylineVertex
 10
249.8038907022
 20
-139.0810371335
 30
-215.4952999365
 70
        32
  0
VERTEX
  5
69D
100
AcDbEntity
  8
CK_LEVEL_1
  6
CONTINUOUS
 62
         2
100
AcDbVertex
100
AcDb3dPolylineVertex
 10
249.9227460568
 20
-139.1209516905
 30
-215.4849014403
 70
        32
  0
VERTEX
  5
69F
100
AcDbEntity
  8
CK_LEVEL_1
  6
CONTINUOUS
 62
         2
100
AcDbVertex
100
AcDb3dPolylineVertex
 10
250.0404146958
 20
-139.1618840607
 30
-215.4746067684
 70
        32
  0
VERTEX
  5
6A1
100
AcDbEntity
  8
CK_LEVEL_1
  6
CONTINUOUS
 62
         2
100
AcDbVertex
100
AcDb3dPolylineVertex
 10
250.1568269957
 20
-139.2037787038
 30
-215.4644220118
 70
        32
  0
VERTEX
  5
6A3
100
AcDbEntity
  8
CK_LEVEL_1
  6
CONTINUOUS
 62
         2
100
AcDbVertex
100
AcDb3dPolylineVertex
 10
250.2719133331
 20
-139.2465800794
 30
-215.454353262
 70
        32
  0
VERTEX
  5
6A5
100
AcDbEntity
  8
CK_LEVEL_1
  6
CONTINUOUS
 62
         2
100
AcDbVertex
100
AcDb3dPolylineVertex
 10
250.3856040848
 20
-139.2902326472
 30
-215.4444066101
 70
        32
  0
VERTEX
  5
6A7
100
AcDbEntity
  8
CK_LEVEL_1
  6
CONTINUOUS
 62
         2
100
AcDbVertex
100
AcDb3dPolylineVertex
 10
250.4978296275
 20
-139.3346808668
 30
-215.4345881473
 70
        32
  0
VERTEX
  5
6A9
100
AcDbEntity
  8
CK_LEVEL_1
  6
CONTINUOUS
 62
         2
100
AcDbVertex
100
AcDb3dPolylineVertex
 10
250.6085203377
 20
-139.3798691978
 30
-215.424903965
 70
        32
  0
VERTEX
  5
6AB
100
AcDbEntity
  8
CK_LEVEL_1
  6
CONTINUOUS
 62
         2
100
AcDbVertex
100
AcDb3dPolylineVertex
 10
250.7182306227
 20
-139.4260034291
 30
-215.4153055588
 70
        32
  0
VERTEX
  5
6AD
100
AcDbEntity
  8
CK_LEVEL_1
  6
CONTINUOUS
 62
         2
100
AcDbVertex
100
AcDb3dPolylineVertex
 10
250.8285090693
 20
-139.4737371336
 30
-215.4056574449
 70
        32
  0
VERTEX
  5
6AF
100
AcDbEntity
  8
CK_LEVEL_1
  6
CONTINUOUS
 62
         2
100
AcDbVertex
100
AcDb3dPolylineVertex
 10
250.9392674319
 20
-139.5230607846
 30
-215.3959673438
 70
        32
  0
VERTEX
  5
6B1
100
AcDbEntity
  8
CK_LEVEL_1
  6
CONTINUOUS
 62
         2
100
AcDbVertex
100
AcDb3dPolylineVertex
 10
251.0504174649
 20
-139.5739648556
 30
-215.386242976
 70
        32
  0
VERTEX
  5
6B3
100
AcDbEntity
  8
CK_LEVEL_1
  6
CONTINUOUS
 62
         2
100
AcDbVertex
100
AcDb3dPolylineVertex
 10
251.1618709227
 20
-139.6264398199
 30
-215.3764920619
 70
        32
  0
VERTEX
  5
6B5
100
AcDbEntity
  8
CK_LEVEL_1
  6
CONTINUOUS
 62
         2
100
AcDbVertex
100
AcDb3dPolylineVertex
 10
251.2735395596
 20
-139.6804761512
 30
-215.3667223221
 70
        32
  0
VERTEX
  5
6B7
100
AcDbEntity
  8
CK_LEVEL_1
  6
CONTINUOUS
 62
         2
100
AcDbVertex
100
AcDb3dPolylineVertex
 10
251.38533513
 20
-139.7360643227
 30
-215.356941477
 70
        32
  0
VERTEX
  5
6B9
100
AcDbEntity
  8
CK_LEVEL_1
  6
CONTINUOUS
 62
         2
100
AcDbVertex
100
AcDb3dPolylineVertex
 10
251.4971693883
 20
-139.793194808
 30
-215.3471572472
 70
        32
  0
VERTEX
  5
6BB
100
AcDbEntity
  8
CK_LEVEL_1
  6
CONTINUOUS
 62
         2
100
AcDbVertex
100
AcDb3dPolylineVertex
 10
251.6089540889
 20
-139.8518580805
 30
-215.3373773532
 70
        32
  0
VERTEX
  5
6BD
100
AcDbEntity
  8
CK_LEVEL_1
  6
CONTINUOUS
 62
         2
100
AcDbVertex
100
AcDb3dPolylineVertex
 10
251.7206028634
 20
-139.912041057
 30
-215.3276093511
 70
        32
  0
VERTEX
  5
6BF
100
AcDbEntity
  8
CK_LEVEL_1
  6
CONTINUOUS
 62
         2
100
AcDbVertex
100
AcDb3dPolylineVertex
 10
251.8320378021
 20
-139.9737146294
 30
-215.3178600573
 70
        32
  0
VERTEX
  5
6C1
100
AcDbEntity
  8
CK_LEVEL_1
  6
CONTINUOUS
 62
         2
100
AcDbVertex
100
AcDb3dPolylineVertex
 10
251.9431833474
 20
-140.0368452329
 30
-215.3081360821
 70
        32
  0
VERTEX
  5
6C3
100
AcDbEntity
  8
CK_LEVEL_1
  6
CONTINUOUS
 62
         2
100
AcDbVertex
100
AcDb3dPolylineVertex
 10
252.0539639417
 20
-140.1013993031
 30
-215.2984440359
 70
        32
  0
VERTEX
  5
6C5
100
AcDbEntity
  8
CK_LEVEL_1
  6
CONTINUOUS
 62
         2
100
AcDbVertex
100
AcDb3dPolylineVertex
 10
252.1643040275
 20
-140.1673432755
 30
-215.2887905293
 70
        32
  0
VERTEX
  5
6C7
100
AcDbEntity
  8
CK_LEVEL_1
  6
CONTINUOUS
 62
         2
100
AcDbVertex
100
AcDb3dPolylineVertex
 10
252.2741280472
 20
-140.2346435855
 30
-215.2791821726
 70
        32
  0
VERTEX
  5
6C9
100
AcDbEntity
  8
CK_LEVEL_1
  6
CONTINUOUS
 62
         2
100
AcDbVertex
100
AcDb3dPolylineVertex
 10
252.3833604433
 20
-140.3032666687
 30
-215.2696255762
 70
        32
  0
VERTEX
  5
6CB
100
AcDbEntity
  8
CK_LEVEL_1
  6
CONTINUOUS
 62
         2
100
AcDbVertex
100
AcDb3dPolylineVertex
 10
252.491925658
 20
-140.3731789605
 30
-215.2601273507
 70
        32
  0
VERTEX
  5
6CD
100
AcDbEntity
  8
CK_LEVEL_1
  6
CONTINUOUS
 62
         2
100
AcDbVertex
100
AcDb3dPolylineVertex
 10
252.599748134
 20
-140.4443468964
 30
-215.2506941064
 70
        32
  0
VERTEX
  5
6CF
100
AcDbEntity
  8
CK_LEVEL_1
  6
CONTINUOUS
 62
         2
100
AcDbVertex
100
AcDb3dPolylineVertex
 10
252.7067599528
 20
-140.5167365185
 30
-215.2413317853
 70
        32
  0
VERTEX
  5
6D1
100
AcDbEntity
  8
CK_LEVEL_1
  6
CONTINUOUS
 62
         2
100
AcDbVertex
100
AcDb3dPolylineVertex
 10
252.8129033657
 20
-140.5902985206
 30
-215.23204544
 70
        32
  0
VERTEX
  5
6D3
100
AcDbEntity
  8
CK_LEVEL_1
  6
CONTINUOUS
 62
         2
100
AcDbVertex
100
AcDb3dPolylineVertex
 10
252.9181180689
 20
-140.6649763157
 30
-215.2228403462
 70
        32
  0
VERTEX
  5
6D5
100
AcDbEntity
  8
CK_LEVEL_1
  6
CONTINUOUS
 62
         2
100
AcDbVertex
100
AcDb3dPolylineVertex
 10
253.0223437588
 20
-140.7407133167
 30
-215.2137217799
 70
        32
  0
VERTEX
  5
6D7
100
AcDbEntity
  8
CK_LEVEL_1
  6
CONTINUOUS
 62
         2
100
AcDbVertex
100
AcDb3dPolylineVertex
 10
253.1255201318
 20
-140.8174529367
 30
-215.2046950169
 70
        32
  0
VERTEX
  5
6D9
100
AcDbEntity
  8
CK_LEVEL_1
  6
CONTINUOUS
 62
         2
100
AcDbVertex
100
AcDb3dPolylineVertex
 10
253.2275868843
 20
-140.8951385887
 30
-215.1957653332
 70
        32
  0
VERTEX
  5
6DB
100
AcDbEntity
  8
CK_LEVEL_1
  6
CONTINUOUS
 62
         2
100
AcDbVertex
100
AcDb3dPolylineVertex
 10
253.3284837126
 20
-140.9737136856
 30
-215.1869380045
 70
        32
  0
VERTEX
  5
6DD
100
AcDbEntity
  8
CK_LEVEL_1
  6
CONTINUOUS
 62
         2
100
AcDbVertex
100
AcDb3dPolylineVertex
 10
253.428150313
 20
-141.0531216406
 30
-215.1782183069
 70
        32
  0
VERTEX
  5
6DF
100
AcDbEntity
  8
CK_LEVEL_1
  6
CONTINUOUS
 62
         2
100
AcDbVertex
100
AcDb3dPolylineVertex
 10
253.5265263819
 20
-141.1333058665
 30
-215.1696115161
 70
        32
  0
VERTEX
  5
6E1
100
AcDbEntity
  8
CK_LEVEL_1
  6
CONTINUOUS
 62
         2
100
AcDbVertex
100
AcDb3dPolylineVertex
 10
253.6235547892
 20
-141.2142058976
 30
-215.1611226304
 70
        32
  0
VERTEX
  5
6E3
100
AcDbEntity
  8
CK_LEVEL_1
  6
CONTINUOUS
 62
         2
100
AcDbVertex
100
AcDb3dPolylineVertex
 10
253.7191899553
 20
-141.2957471499
 30
-215.1527556375
 70
        32
  0
VERTEX
  5
6E5
100
AcDbEntity
  8
CK_LEVEL_1
  6
CONTINUOUS
 62
         2
100
AcDbVertex
100
AcDb3dPolylineVertex
 10
253.8133889023
 20
-141.3778518596
 30
-215.1445142975
 70
        32
  0
VERTEX
  5
6E7
100
AcDbEntity
  8
CK_LEVEL_1
  6
CONTINUOUS
 62
         2
100
AcDbVertex
100
AcDb3dPolylineVertex
 10
253.9061086525
 20
-141.4604422628
 30
-215.1364023705
 70
        32
  0
VERTEX
  5
6E9
100
AcDbEntity
  8
CK_LEVEL_1
  6
CONTINUOUS
 62
         2
100
AcDbVertex
100
AcDb3dPolylineVertex
 10
253.9973062281
 20
-141.5434405954
 30
-215.1284236165
 70
        32
  0
VERTEX
  5
6EB
100
AcDbEntity
  8
CK_LEVEL_1
  6
CONTINUOUS
 62
         2
100
AcDbVertex
100
AcDb3dPolylineVertex
 10
254.0869386512
 20
-141.6267690935
 30
-215.1205817956
 70
        32
  0
VERTEX
  5
6ED
100
AcDbEntity
  8
CK_LEVEL_1
  6
CONTINUOUS
 62
         2
100
AcDbVertex
100
AcDb3dPolylineVertex
 10
254.1749629441
 20
-141.7103499932
 30
-215.1128806679
 70
        32
  0
VERTEX
  5
6EF
100
AcDbEntity
  8
CK_LEVEL_1
  6
CONTINUOUS
 62
         2
100
AcDbVertex
100
AcDb3dPolylineVertex
 10
254.2613361289
 20
-141.7941055306
 30
-215.1053239934
 70
        32
  0
VERTEX
  5
6F1
100
AcDbEntity
  8
CK_LEVEL_1
  6
CONTINUOUS
 62
         2
100
AcDbVertex
100
AcDb3dPolylineVertex
 10
254.3460152279
 20
-141.8779579417
 30
-215.0979155322
 70
        32
  0
VERTEX
  5
6F3
100
AcDbEntity
  8
CK_LEVEL_1
  6
CONTINUOUS
 62
         2
100
AcDbVertex
100
AcDb3dPolylineVertex
 10
254.4295004185
 20
-141.9623780074
 30
-215.0906115244
 70
        32
  0
VERTEX
  5
6F5
100
AcDbEntity
  8
CK_LEVEL_1
  6
CONTINUOUS
 62
         2
100
AcDbVertex
100
AcDb3dPolylineVertex
 10
254.5128983686
 20
-142.0484900425
 30
-215.0833151492
 70
        32
  0
VERTEX
  5
6F7
100
AcDbEntity
  8
CK_LEVEL_1
  6
CONTINUOUS
 62
         2
100
AcDbVertex
100
AcDb3dPolylineVertex
 10
254.5961314079
 20
-142.1362515119
 30
-215.0760332018
 70
        32
  0
VERTEX
  5
6F9
100
AcDbEntity
  8
CK_LEVEL_1
  6
CONTINUOUS
 62
         2
100
AcDbVertex
100
AcDb3dPolylineVertex
 10
254.6791218659
 20
-142.2256198802
 30
-215.0687724776
 70
        32
  0
VERTEX
  5
6FB
100
AcDbEntity
  8
CK_LEVEL_1
  6
CONTINUOUS
 62
         2
100
AcDbVertex
100
AcDb3dPolylineVertex
 10
254.761792072
 20
-142.3165526121
 30
-215.0615397717
 70
        32
  0
VERTEX
  5
6FD
100
AcDbEntity
  8
CK_LEVEL_1
  6
CONTINUOUS
 62
         2
100
AcDbVertex
100
AcDb3dPolylineVertex
 10
254.844064356
 20
-142.4090071723
 30
-215.0543418796
 70
        32
  0
VERTEX
  5
6FF
100
AcDbEntity
  8
CK_LEVEL_1
  6
CONTINUOUS
 62
         2
100
AcDbVertex
100
AcDb3dPolylineVertex
 10
254.9258610472
 20
-142.5029410255
 30
-215.0471855964
 70
        32
  0
VERTEX
  5
701
100
AcDbEntity
  8
CK_LEVEL_1
  6
CONTINUOUS
 62
         2
100
AcDbVertex
100
AcDb3dPolylineVertex
 10
255.0071044753
 20
-142.5983116364
 30
-215.0400777174
 70
        32
  0
VERTEX
  5
703
100
AcDbEntity
  8
CK_LEVEL_1
  6
CONTINUOUS
 62
         2
100
AcDbVertex
100
AcDb3dPolylineVertex
 10
255.0877169697
 20
-142.6950764696
 30
-215.033025038
 70
        32
  0
VERTEX
  5
705
100
AcDbEntity
  8
CK_LEVEL_1
  6
CONTINUOUS
 62
         2
100
AcDbVertex
100
AcDb3dPolylineVertex
 10
255.167623956
 20
-142.7931904203
 30
-215.0260340826
 70
        32
  0
VERTEX
  5
707
100
AcDbEntity
  8
CK_LEVEL_1
  6
CONTINUOUS
 62
         2
100
AcDbVertex
100
AcDb3dPolylineVertex
 10
255.2467647853
 20
-142.8925968243
 30
-215.0191101572
 70
        32
  0
VERTEX
  5
709
100
AcDbEntity
  8
CK_LEVEL_1
  6
CONTINUOUS
 62
         2
100
AcDbVertex
100
AcDb3dPolylineVertex
 10
255.3250826761
 20
-142.9932358078
 30
-215.0122582296
 70
        32
  0
VERTEX
  5
70B
100
AcDbEntity
  8
CK_LEVEL_1
  6
CONTINUOUS
 62
         2
100
AcDbVertex
100
AcDb3dPolylineVertex
 10
255.4025208469
 20
-143.0950474968
 30
-215.0054832675
 70
        32
  0
VERTEX
  5
70D
100
AcDbEntity
  8
CK_LEVEL_1
  6
CONTINUOUS
 62
         2
100
AcDbVertex
100
AcDb3dPolylineVertex
 10
255.4790225161
 20
-143.1979720174
 30
-214.9987902387
 70
        32
  0
VERTEX
  5
70F
100
AcDbEntity
  8
CK_LEVEL_1
  6
CONTINUOUS
 62
         2
100
AcDbVertex
100
AcDb3dPolylineVertex
 10
255.5545309021
 20
-143.3019494958
 30
-214.992184111
 70
        32
  0
VERTEX
  5
711
100
AcDbEntity
  8
CK_LEVEL_1
  6
CONTINUOUS
 62
         2
100
AcDbVertex
100
AcDb3dPolylineVertex
 10
255.6289892234
 20
-143.4069200578
 30
-214.9856698519
 70
        32
  0
VERTEX
  5
713
100
AcDbEntity
  8
CK_LEVEL_1
  6
CONTINUOUS
 62
         2
100
AcDbVertex
100
AcDb3dPolylineVertex
 10
255.7023406985
 20
-143.5128238297
 30
-214.9792524294
 70
        32
  0
VERTEX
  5
715
100
AcDbEntity
  8
CK_LEVEL_1
  6
CONTINUOUS
 62
         2
100
AcDbVertex
100
AcDb3dPolylineVertex
 10
255.7745285458
 20
-143.6196009375
 30
-214.9729368111
 70
        32
  0
VERTEX
  5
717
100
AcDbEntity
  8
CK_LEVEL_1
  6
CONTINUOUS
 62
         2
100
AcDbVertex
100
AcDb3dPolylineVertex
 10
255.8455032012
 20
-143.7271940856
 30
-214.9667273334
 70
        32
  0
VERTEX
  5
719
100
AcDbEntity
  8
CK_LEVEL_1
  6
CONTINUOUS
 62
         2
100
AcDbVertex
100
AcDb3dPolylineVertex
 10
255.9152303374
 20
-143.8355357184
 30
-214.9606269994
 70
        32
  0
VERTEX
  5
71B
100
AcDbEntity
  8
CK_LEVEL_1
  6
CONTINUOUS
 62
         2
100
AcDbVertex
100
AcDb3dPolylineVertex
 10
255.9836760281
 20
-143.9445505724
 30
-214.9546387774
 70
        32
  0
VERTEX
  5
71D
100
AcDbEntity
  8
CK_LEVEL_1
  6
CONTINUOUS
 62
         2
100
AcDbVertex
100
AcDb3dPolylineVertex
 10
256.0508063468
 20
-144.0541633838
 30
-214.9487656356
 70
        32
  0
VERTEX
  5
71F
100
AcDbEntity
  8
CK_LEVEL_1
  6
CONTINUOUS
 62
         2
100
AcDbVertex
100
AcDb3dPolylineVertex
 10
256.1165873672
 20
-144.1642988889
 30
-214.943010542
 70
        32
  0
VERTEX
  5
721
100
AcDbEntity
  8
CK_LEVEL_1
  6
CONTINUOUS
 62
         2
100
AcDbVertex
100
AcDb3dPolylineVertex
 10
256.180985163
 20
-144.2748818241
 30
-214.9373764649
 70
        32
  0
VERTEX
  5
723
100
AcDbEntity
  8
CK_LEVEL_1
  6
CONTINUOUS
 62
         2
100
AcDbVertex
100
AcDb3dPolylineVertex
 10
256.2439658079
 20
-144.3858369258
 30
-214.9318663725
 70
        32
  0
VERTEX
  5
725
100
AcDbEntity
  8
CK_LEVEL_1
  6
CONTINUOUS
 62
         2
100
AcDbVertex
100
AcDb3dPolylineVertex
 10
256.3054953754
 20
-144.4970889302
 30
-214.9264832328
 70
        32
  0
VERTEX
  5
727
100
AcDbEntity
  8
CK_LEVEL_1
  6
CONTINUOUS
 62
         2
100
AcDbVertex
100
AcDb3dPolylineVertex
 10
256.3655399393
 20
-144.6085625737
 30
-214.9212300142
 70
        32
  0
VERTEX
  5
729
100
AcDbEntity
  8
CK_LEVEL_1
  6
CONTINUOUS
 62
         2
100
AcDbVertex
100
AcDb3dPolylineVertex
 10
256.4240699854
 20
-144.7201802297
 30
-214.9161092987
 70
        32
  0
VERTEX
  5
72B
100
AcDbEntity
  8
CK_LEVEL_1
  6
CONTINUOUS
 62
         2
100
AcDbVertex
100
AcDb3dPolylineVertex
 10
256.4810720255
 20
-144.8318556891
 30
-214.9111222664
 70
        32
  0
VERTEX
  5
72D
100
AcDbEntity
  8
CK_LEVEL_1
  6
CONTINUOUS
 62
         2
100
AcDbVertex
100
AcDb3dPolylineVertex
 10
256.5365361725
 20
-144.9435008142
 30
-214.9062697823
 70
        32
  0
VERTEX
  5
72F
100
AcDbEntity
  8
CK_LEVEL_1
  6
CONTINUOUS
 62
         2
100
AcDbVertex
100
AcDb3dPolylineVertex
 10
256.5904525392
 20
-145.0550274674
 30
-214.9015527114
 70
        32
  0
VERTEX
  5
731
100
AcDbEntity
  8
CK_LEVEL_1
  6
CONTINUOUS
 62
         2
100
AcDbVertex
100
AcDb3dPolylineVertex
 10
256.6428112384
 20
-145.1663475112
 30
-214.8969719188
 70
        32
  0
VERTEX
  5
733
100
AcDbEntity
  8
CK_LEVEL_1
  6
CONTINUOUS
 62
         2
100
AcDbVertex
100
AcDb3dPolylineVertex
 10
256.693602383
 20
-145.2773728078
 30
-214.8925282694
 70
        32
  0
VERTEX
  5
735
100
AcDbEntity
  8
CK_LEVEL_1
  6
CONTINUOUS
 62
         2
100
AcDbVertex
100
AcDb3dPolylineVertex
 10
256.7428160857
 20
-145.3880152197
 30
-214.8882226284
 70
        32
  0
VERTEX
  5
737
100
AcDbEntity
  8
CK_LEVEL_1
  6
CONTINUOUS
 62
         2
100
AcDbVertex
100
AcDb3dPolylineVertex
 10
256.7904424594
 20
-145.4981866093
 30
-214.8840558606
 70
        32
  0
VERTEX
  5
739
100
AcDbEntity
  8
CK_LEVEL_1
  6
CONTINUOUS
 62
         2
100
AcDbVertex
100
AcDb3dPolylineVertex
 10
256.8364716168
 20
-145.6077988389
 30
-214.8800288311
 70
        32
  0
VERTEX
  5
73B
100
AcDbEntity
  8
CK_LEVEL_1
  6
CONTINUOUS
 62
         2
100
AcDbVertex
100
AcDb3dPolylineVertex
 10
256.8812394318
 20
-145.7176126722
 30
-214.8761121548
 70
        32
  0
VERTEX
  5
73D
100
AcDbEntity
  8
CK_LEVEL_1
  6
CONTINUOUS
 62
         2
100
AcDbVertex
100
AcDb3dPolylineVertex
 10
256.9252794671
 20
-145.8289525655
 30
-214.872259151
 70
        32
  0
VERTEX
  5
73F
100
AcDbEntity
  8
CK_LEVEL_1
  6
CONTINUOUS
 62
         2
100
AcDbVertex
100
AcDb3dPolylineVertex
 10
256.968536412
 20
-145.941749493
 30
-214.8684746587
 70
        32
  0
VERTEX
  5
741
100
AcDbEntity
  8
CK_LEVEL_1
  6
CONTINUOUS
 62
         2
100
AcDbVertex
100
AcDb3dPolylineVertex
 10
257.0109549558
 20
-146.0559344291
 30
-214.864763517
 70
        32
  0
VERTEX
  5
743
100
AcDbEntity
  8
CK_LEVEL_1
  6
CONTINUOUS
 62
         2
100
AcDbVertex
100
AcDb3dPolylineVertex
 10
257.0524797878
 20
-146.1714383482
 30
-214.8611305649
 70
        32
  0
VERTEX
  5
745
100
AcDbEntity
  8
CK_LEVEL_1
  6
CONTINUOUS
 62
         2
100
AcDbVertex
100
AcDb3dPolylineVertex
 10
257.0930555973
 20
-146.2881922245
 30
-214.8575806416
 70
        32
  0
VERTEX
  5
747
100
AcDbEntity
  8
CK_LEVEL_1
  6
CONTINUOUS
 62
         2
100
AcDbVertex
100
AcDb3dPolylineVertex
 10
257.1326270734
 20
-146.4061270325
 30
-214.854118586
 70
        32
  0
VERTEX
  5
749
100
AcDbEntity
  8
CK_LEVEL_1
  6
CONTINUOUS
 62
         2
100
AcDbVertex
100
AcDb3dPolylineVertex
 10
257.1711389056
 20
-146.5251737463
 30
-214.8507492373
 70
        32
  0
VERTEX
  5
74B
100
AcDbEntity
  8
CK_LEVEL_1
  6
CONTINUOUS
 62
         2
100
AcDbVertex
100
AcDb3dPolylineVertex
 10
257.208535783
 20
-146.6452633404
 30
-214.8474774345
 70
        32
  0
VERTEX
  5
74D
100
AcDbEntity
  8
CK_LEVEL_1
  6
CONTINUOUS
 62
         2
100
AcDbVertex
100
AcDb3dPolylineVertex
 10
257.2447662496
 20
-146.7663256031
 30
-214.8443076794
 70
        32
  0
VERTEX
  5
74F
100
AcDbEntity
  8
CK_LEVEL_1
  6
CONTINUOUS
 62
         2
100
AcDbVertex
100
AcDb3dPolylineVertex
 10
257.2797961319
 20
-146.8882850051
 30
-214.8412429618
 70
        32
  0
VERTEX
  5
751
100
AcDbEntity
  8
CK_LEVEL_1
  6
CONTINUOUS
 62
         2
100
AcDbVertex
100
AcDb3dPolylineVertex
 10
257.3135960432
 20
-147.0110645444
 30
-214.8382858527
 70
        32
  0
VERTEX
  5
753
100
AcDbEntity
  8
CK_LEVEL_1
  6
CONTINUOUS
 62
         2
100
AcDbVertex
100
AcDb3dPolylineVertex
 10
257.3461365964
 20
-147.1345872191
 30
-214.8354389232
 70
        32
  0
VERTEX
  5
755
100
AcDbEntity
  8
CK_LEVEL_1
  6
CONTINUOUS
 62
         2
100
AcDbVertex
100
AcDb3dPolylineVertex
 10
257.3773884048
 20
-147.2587760272
 30
-214.8327047443
 70
        32
  0
VERTEX
  5
757
100
AcDbEntity
  8
CK_LEVEL_1
  6
CONTINUOUS
 62
         2
100
AcDbVertex
100
AcDb3dPolylineVertex
 10
257.4073220814
 20
-147.3835539667
 30
-214.8300858869
 70
        32
  0
VERTEX
  5
759
100
AcDbEntity
  8
CK_LEVEL_1
  6
CONTINUOUS
 62
         2
100
AcDbVertex
100
AcDb3dPolylineVertex
 10
257.4359082393
 20
-147.5088440357
 30
-214.8275849221
 70
        32
  0
VERTEX
  5
75B
100
AcDbEntity
  8
CK_LEVEL_1
  6
CONTINUOUS
 62
         2
100
AcDbVertex
100
AcDb3dPolylineVertex
 10
257.4631174917
 20
-147.6345692322
 30
-214.825204421
 70
        32
  0
VERTEX
  5
75D
100
AcDbEntity
  8
CK_LEVEL_1
  6
CONTINUOUS
 62
         2
100
AcDbVertex
100
AcDb3dPolylineVertex
 10
257.4889204518
 20
-147.7606525541
 30
-214.8229469545
 70
        32
  0
VERTEX
  5
75F
100
AcDbEntity
  8
CK_LEVEL_1
  6
CONTINUOUS
 62
         2
100
AcDbVertex
100
AcDb3dPolylineVertex
 10
257.5132934205
 20
-147.8870221567
 30
-214.8208145961
 70
        32
  0
VERTEX
  5
761
100
AcDbEntity
  8
CK_LEVEL_1
  6
CONTINUOUS
 62
         2
100
AcDbVertex
100
AcDb3dPolylineVertex
 10
257.5362306676
 20
-148.0136025946
 30
-214.818807847
 70
        32
  0
VERTEX
  5
763
100
AcDbEntity
  8
CK_LEVEL_1
  6
CONTINUOUS
 62
         2
100
AcDbVertex
100
AcDb3dPolylineVertex
 10
257.5577297586
 20
-148.140311465
 30
-214.8169269202
 70
        32
  0
VERTEX
  5
765
100
AcDbEntity
  8
CK_LEVEL_1
  6
CONTINUOUS
 62
         2
100
AcDbVertex
100
AcDb3dPolylineVertex
 10
257.5777882593
 20
-148.2670663652
 30
-214.8151720288
 70
        32
  0
VERTEX
  5
767
100
AcDbEntity
  8
CK_LEVEL_1
  6
CONTINUOUS
 62
         2
100
AcDbVertex
100
AcDb3dPolylineVertex
 10
257.5964037352
 20
-148.3937848924
 30
-214.8135433857
 70
        32
  0
VERTEX
  5
769
100
AcDbEntity
  8
CK_LEVEL_1
  6
CONTINUOUS
 62
         2
100
AcDbVertex
100
AcDb3dPolylineVertex
 10
257.613573752
 20
-148.5203846438
 30
-214.8120412039
 70
        32
  0
VERTEX
  5
76B
100
AcDbEntity
  8
CK_LEVEL_1
  6
CONTINUOUS
 62
         2
100
AcDbVertex
100
AcDb3dPolylineVertex
 10
257.6292958755
 20
-148.6467832167
 30
-214.8106656963
 70
        32
  0
VERTEX
  5
76D
100
AcDbEntity
  8
CK_LEVEL_1
  6
CONTINUOUS
 62
         2
100
AcDbVertex
100
AcDb3dPolylineVertex
 10
257.6435676711
 20
-148.7728982083
 30
-214.809417076
 70
        32
  0
VERTEX
  5
76F
100
AcDbEntity
  8
CK_LEVEL_1
  6
CONTINUOUS
 62
         2
100
AcDbVertex
100
AcDb3dPolylineVertex
 10
257.6563867047
 20
-148.8986472159
 30
-214.8082955559
 70
        32
  0
VERTEX
  5
771
100
AcDbEntity
  8
CK_LEVEL_1
  6
CONTINUOUS
 62
         2
100
AcDbVertex
100
AcDb3dPolylineVertex
 10
257.6677555189
 20
-149.0239473536
 30
-214.8073009135
 70
        32
  0
VERTEX
  5
773
100
AcDbEntity
  8
CK_LEVEL_1
  6
CONTINUOUS
 62
         2
100
AcDbVertex
100
AcDb3dPolylineVertex
 10
257.6776946818
 20
-149.1487139861
 30
-214.8064313494
 70
        32
  0
VERTEX
  5
775
100
AcDbEntity
  8
CK_LEVEL_1
  6
CONTINUOUS
 62
         2
100
AcDbVertex
100
AcDb3dPolylineVertex
 10
257.6862287973
 20
-149.2728620864
 30
-214.8056847111
 70
        32
  0
VERTEX
  5
777
100
AcDbEntity
  8
CK_LEVEL_1
  6
CONTINUOUS
 62
         2
100
AcDbVertex
100
AcDb3dPolylineVertex
 10
257.6933824692
 20
-149.3963066276
 30
-214.8050588459
 70
        32
  0
VERTEX
  5
779
100
AcDbEntity
  8
CK_LEVEL_1
  6
CONTINUOUS
 62
         2
100
AcDbVertex
100
AcDb3dPolylineVertex
 10
257.6991803012
 20
-149.5189625825
 30
-214.8045516013
 70
        32
  0
VERTEX
  5
77B
100
AcDbEntity
  8
CK_LEVEL_1
  6
CONTINUOUS
 62
         2
100
AcDbVertex
100
AcDb3dPolylineVertex
 10
257.7036468972
 20
-149.6407449242
 30
-214.8041608248
 70
        32
  0
VERTEX
  5
77D
100
AcDbEntity
  8
CK_LEVEL_1
  6
CONTINUOUS
 62
         2
100
AcDbVertex
100
AcDb3dPolylineVertex
 10
257.7068068611
 20
-149.7615686257
 30
-214.8038843638
 70
        32
  0
VERTEX
  5
77F
100
AcDbEntity
  8
CK_LEVEL_1
  6
CONTINUOUS
 62
         2
100
AcDbVertex
100
AcDb3dPolylineVertex
 10
257.7086847966
 20
-149.8813486599
 30
-214.8037200657
 70
        32
  0
VERTEX
  5
781
100
AcDbEntity
  8
CK_LEVEL_1
  6
CONTINUOUS
 62
         2
100
AcDbVertex
100
AcDb3dPolylineVertex
 10
257.7093053076
 20
-150.0
 30
-214.803665778
 70
        32
  0
VERTEX
  5
783
100
AcDbEntity
  8
CK_LEVEL_1
  6
CONTINUOUS
 62
         2
100
AcDbVertex
100
AcDb3dPolylineVertex
 10
257.7086847966
 20
-150.1186513401
 30
-214.8037200657
 70
        32
  0
VERTEX
  5
785
100
AcDbEntity
  8
CK_LEVEL_1
  6
CONTINUOUS
 62
         2
100
AcDbVertex
100
AcDb3dPolylineVertex
 10
257.7068068611
 20
-150.2384313743
 30
-214.8038843638
 70
        32
  0
VERTEX
  5
787
100
AcDbEntity
  8
CK_LEVEL_1
  6
CONTINUOUS
 62
         2
100
AcDbVertex
100
AcDb3dPolylineVertex
 10
257.7036468972
 20
-150.3592550758
 30
-214.8041608248
 70
        32
  0
VERTEX
  5
789
100
AcDbEntity
  8
CK_LEVEL_1
  6
CONTINUOUS
 62
         2
100
AcDbVertex
100
AcDb3dPolylineVertex
 10
257.6991803012
 20
-150.4810374175
 30
-214.8045516013
 70
        32
  0
VERTEX
  5
78B
100
AcDbEntity
  8
CK_LEVEL_1
  6
CONTINUOUS
 62
         2
100
AcDbVertex
100
AcDb3dPolylineVertex
 10
257.6933824692
 20
-150.6036933724
 30
-214.8050588459
 70
        32
  0
VERTEX
  5
78D
100
AcDbEntity
  8
CK_LEVEL_1
  6
CONTINUOUS
 62
         2
100
AcDbVertex
100
AcDb3dPolylineVertex
 10
257.6862287973
 20
-150.7271379136
 30
-214.8056847111
 70
        32
  0
VERTEX
  5
78F
100
AcDbEntity
  8
CK_LEVEL_1
  6
CONTINUOUS
 62
         2
100
AcDbVertex
100
AcDb3dPolylineVertex
 10
257.6776946818
 20
-150.8512860139
 30
-214.8064313494
 70
        32
  0
VERTEX
  5
791
100
AcDbEntity
  8
CK_LEVEL_1
  6
CONTINUOUS
 62
         2
100
AcDbVertex
100
AcDb3dPolylineVertex
 10
257.6677555189
 20
-150.9760526464
 30
-214.8073009135
 70
        32
  0
VERTEX
  5
793
100
AcDbEntity
  8
CK_LEVEL_1
  6
CONTINUOUS
 62
         2
100
AcDbVertex
100
AcDb3dPolylineVertex
 10
257.6563867047
 20
-151.1013527841
 30
-214.8082955559
 70
        32
  0
VERTEX
  5
795
100
AcDbEntity
  8
CK_LEVEL_1
  6
CONTINUOUS
 62
         2
100
AcDbVertex
100
AcDb3dPolylineVertex
 10
257.6435676711
 20
-151.2271017917
 30
-214.809417076
 70
        32
  0
VERTEX
  5
797
100
AcDbEntity
  8
CK_LEVEL_1
  6
CONTINUOUS
 62
         2
100
AcDbVertex
100
AcDb3dPolylineVertex
 10
257.6292958755
 20
-151.3532167833
 30
-214.8106656963
 70
        32
  0
VERTEX
  5
799
100
AcDbEntity
  8
CK_LEVEL_1
  6
CONTINUOUS
 62
         2
100
AcDbVertex
100
AcDb3dPolylineVertex
 10
257.613573752
 20
-151.4796153562
 30
-214.8120412039
 70
        32
  0
VERTEX
  5
79B
100
AcDbEntity
  8
CK_LEVEL_1
  6
CONTINUOUS
 62
         2
100
AcDbVertex
100
AcDb3dPolylineVertex
 10
257.5964037352
 20
-151.6062151076
 30
-214.8135433857
 70
        32
  0
VERTEX
  5
79D
100
AcDbEntity
  8
CK_LEVEL_1
  6
CONTINUOUS
 62
         2
100
AcDbVertex
100
AcDb3dPolylineVertex
 10
257.5777882593
 20
-151.7329336348
 30
-214.8151720288
 70
        32
  0
VERTEX
  5
79F
100
AcDbEntity
  8
CK_LEVEL_1
  6
CONTINUOUS
 62
         2
100
AcDbVertex
100
AcDb3dPolylineVertex
 10
257.5577297586
 20
-151.859688535
 30
-214.8169269202
 70
        32
  0
VERTEX
  5
7A1
100
AcDbEntity
  8
CK_LEVEL_1
  6
CONTINUOUS
 62
         2
100
AcDbVertex
100
AcDb3dPolylineVertex
 10
257.5362306676
 20
-151.9863974054
 30
-214.818807847
 70
        32
  0
VERTEX
  5
7A3
100
AcDbEntity
  8
CK_LEVEL_1
  6
CONTINUOUS
 62
         2
100
AcDbVertex
100
AcDb3dPolylineVertex
 10
257.5132934205
 20
-152.1129778433
 30
-214.8208145961
 70
        32
  0
VERTEX
  5
7A5
100
AcDbEntity
  8
CK_LEVEL_1
  6
CONTINUOUS
 62
         2
100
AcDbVertex
100
AcDb3dPolylineVertex
 10
257.4889204518
 20
-152.2393474459
 30
-214.8229469545
 70
        32
  0
VERTEX
  5
7A7
100
AcDbEntity
  8
CK_LEVEL_1
  6
CONTINUOUS
 62
         2
100
AcDbVertex
100
AcDb3dPolylineVertex
 10
257.4631174917
 20
-152.3654307678
 30
-214.825204421
 70
        32
  0
VERTEX
  5
7A9
100
AcDbEntity
  8
CK_LEVEL_1
  6
CONTINUOUS
 62
         2
100
AcDbVertex
100
AcDb3dPolylineVertex
 10
257.4359082393
 20
-152.4911559643
 30
-214.8275849221
 70
        32
  0
VERTEX
  5
7AB
100
AcDbEntity
  8
CK_LEVEL_1
  6
CONTINUOUS
 62
         2
100
AcDbVertex
100
AcDb3dPolylineVertex
 10
257.4073220814
 20
-152.6164460333
 30
-214.8300858869
 70
        32
  0
VERTEX
  5
7AD
100
AcDbEntity
  8
CK_LEVEL_1
  6
CONTINUOUS
 62
         2
100
AcDbVertex
100
AcDb3dPolylineVertex
 10
257.3773884048
 20
-152.7412239728
 30
-214.8327047443
 70
        32
  0
VERTEX
  5
7AF
100
AcDbEntity
  8
CK_LEVEL_1
  6
CONTINUOUS
 62
         2
100
AcDbVertex
100
AcDb3dPolylineVertex
 10
257.3461365964
 20
-152.8654127809
 30
-214.8354389232
 70
        32
  0
VERTEX
  5
7B1
100
AcDbEntity
  8
CK_LEVEL_1
  6
CONTINUOUS
 62
         2
100
AcDbVertex
100
AcDb3dPolylineVertex
 10
257.3135960432
 20
-152.9889354556
 30
-214.8382858527
 70
        32
  0
VERTEX
  5
7B3
100
AcDbEntity
  8
CK_LEVEL_1
  6
CONTINUOUS
 62
         2
100
AcDbVertex
100
AcDb3dPolylineVertex
 10
257.2797961319
 20
-153.1117149949
 30
-214.8412429618
 70
        32
  0
VERTEX
  5
7B5
100
AcDbEntity
  8
CK_LEVEL_1
  6
CONTINUOUS
 62
         2
100
AcDbVertex
100
AcDb3dPolylineVertex
 10
257.2447662496
 20
-153.2336743969
 30
-214.8443076794
 70
        32
  0
VERTEX
  5
7B7
100
AcDbEntity
  8
CK_LEVEL_1
  6
CONTINUOUS
 62
         2
100
AcDbVertex
100
AcDb3dPolylineVertex
 10
257.208535783
 20
-153.3547366596
 30
-214.8474774345
 70
        32
  0
VERTEX
  5
7B9
100
AcDbEntity
  8
CK_LEVEL_1
  6
CONTINUOUS
 62
         2
100
AcDbVertex
100
AcDb3dPolylineVertex
 10
257.1711389056
 20
-153.4748262537
 30
-214.8507492373
 70
        32
  0
VERTEX
  5
7BB
100
AcDbEntity
  8
CK_LEVEL_1
  6
CONTINUOUS
 62
         2
100
AcDbVertex
100
AcDb3dPolylineVertex
 10
257.1326270734
 20
-153.5938729675
 30
-214.854118586
 70
        32
  0
VERTEX
  5
7BD
100
AcDbEntity
  8
CK_LEVEL_1
  6
CONTINUOUS
 62
         2
100
AcDbVertex
100
AcDb3dPolylineVertex
 10
257.0930555973
 20
-153.7118077755
 30
-214.8575806416
 70
        32
  0
VERTEX
  5
7BF
100
AcDbEntity
  8
CK_LEVEL_1
  6
CONTINUOUS
 62
         2
100
AcDbVertex
100
AcDb3dPolylineVertex
 10
257.0524797878
 20
-153.8285616518
 30
-214.8611305649
 70
        32
  0
VERTEX
  5
7C1
100
AcDbEntity
  8
CK_LEVEL_1
  6
CONTINUOUS
 62
         2
100
AcDbVertex
100
AcDb3dPolylineVertex
 10
257.0109549558
 20
-153.9440655709
 30
-214.864763517
 70
        32
  0
VERTEX
  5
7C3
100
AcDbEntity
  8
CK_LEVEL_1
  6
CONTINUOUS
 62
         2
100
AcDbVertex
100
AcDb3dPolylineVertex
 10
256.968536412
 20
-154.058250507
 30
-214.8684746587
 70
        32
  0
VERTEX
  5
7C5
100
AcDbEntity
  8
CK_LEVEL_1
  6
CONTINUOUS
 62
         2
100
AcDbVertex
100
AcDb3dPolylineVertex
 10
256.9252794671
 20
-154.1710474345
 30
-214.872259151
 70
        32
  0
VERTEX
  5
7C7
100
AcDbEntity
  8
CK_LEVEL_1
  6
CONTINUOUS
 62
         2
100
AcDbVertex
100
AcDb3dPolylineVertex
 10
256.8812394318
 20
-154.2823873278
 30
-214.8761121548
 70
        32
  0
VERTEX
  5
7C9
100
AcDbEntity
  8
CK_LEVEL_1
  6
CONTINUOUS
 62
         2
100
AcDbVertex
100
AcDb3dPolylineVertex
 10
256.8364716168
 20
-154.3922011611
 30
-214.8800288311
 70
        32
  0
VERTEX
  5
7CB
100
AcDbEntity
  8
CK_LEVEL_1
  6
CONTINUOUS
 62
         2
100
AcDbVertex
100
AcDb3dPolylineVertex
 10
256.7904424594
 20
-154.5018133907
 30
-214.8840558606
 70
        32
  0
VERTEX
  5
7CD
100
AcDbEntity
  8
CK_LEVEL_1
  6
CONTINUOUS
 62
         2
100
AcDbVertex
100
AcDb3dPolylineVertex
 10
256.7428160857
 20
-154.6119847803
 30
-214.8882226284
 70
        32
  0
VERTEX
  5
7CF
100
AcDbEntity
  8
CK_LEVEL_1
  6
CONTINUOUS
 62
         2
100
AcDbVertex
100
AcDb3dPolylineVertex
 10
256.693602383
 20
-154.7226271922
 30
-214.8925282694
 70
        32
  0
VERTEX
  5
7D1
100
AcDbEntity
  8
CK_LEVEL_1
  6
CONTINUOUS
 62
         2
100
AcDbVertex
100
AcDb3dPolylineVertex
 10
256.6428112384
 20
-154.8336524888
 30
-214.8969719188
 70
        32
  0
VERTEX
  5
7D3
100
AcDbEntity
  8
CK_LEVEL_1
  6
CONTINUOUS
 62
         2
100
AcDbVertex
100
AcDb3dPolylineVertex
 10
256.5904525392
 20
-154.9449725326
 30
-214.9015527114
 70
        32
  0
VERTEX
  5
7D5
100
AcDbEntity
  8
CK_LEVEL_1
  6
CONTINUOUS
 62
         2
100
AcDbVertex
100
AcDb3dPolylineVertex
 10
256.5365361725
 20
-155.0564991858
 30
-214.9062697823
 70
        32
  0
VERTEX
  5
7D7
100
AcDbEntity
  8
CK_LEVEL_1
  6
CONTINUOUS
 62
         2
100
AcDbVertex
100
AcDb3dPolylineVertex
 10
256.4810720255
 20
-155.1681443109
 30
-214.9111222664
 70
        32
  0
VERTEX
  5
7D9
100
AcDbEntity
  8
CK_LEVEL_1
  6
CONTINUOUS
 62
         2
100
AcDbVertex
100
AcDb3dPolylineVertex
 10
256.4240699854
 20
-155.2798197703
 30
-214.9161092987
 70
        32
  0
VERTEX
  5
7DB
100
AcDbEntity
  8
CK_LEVEL_1
  6
CONTINUOUS
 62
         2
100
AcDbVertex
100
AcDb3dPolylineVertex
 10
256.3655399393
 20
-155.3914374263
 30
-214.9212300142
 70
        32
  0
VERTEX
  5
7DD
100
AcDbEntity
  8
CK_LEVEL_1
  6
CONTINUOUS
 62
         2
100
AcDbVertex
100
AcDb3dPolylineVertex
 10
256.3054953754
 20
-155.5029110698
 30
-214.9264832328
 70
        32
  0
VERTEX
  5
7DF
100
AcDbEntity
  8
CK_LEVEL_1
  6
CONTINUOUS
 62
         2
100
AcDbVertex
100
AcDb3dPolylineVertex
 10
256.2439658079
 20
-155.6141630742
 30
-214.9318663725
 70
        32
  0
VERTEX
  5
7E1
100
AcDbEntity
  8
CK_LEVEL_1
  6
CONTINUOUS
 62
         2
100
AcDbVertex
100
AcDb3dPolylineVertex
 10
256.180985163
 20
-155.7251181759
 30
-214.9373764649
 70
        32
  0
VERTEX
  5
7E3
100
AcDbEntity
  8
CK_LEVEL_1
  6
CONTINUOUS
 62
         2
100
AcDbVertex
100
AcDb3dPolylineVertex
 10
256.1165873672
 20
-155.8357011111
 30
-214.943010542
 70
        32
  0
VERTEX
  5
7E5
100
AcDbEntity
  8
CK_LEVEL_1
  6
CONTINUOUS
 62
         2
100
AcDbVertex
100
AcDb3dPolylineVertex
 10
256.0508063468
 20
-155.9458366162
 30
-214.9487656356
 70
        32
  0
VERTEX
  5
7E7
100
AcDbEntity
  8
CK_LEVEL_1
  6
CONTINUOUS
 62
         2
100
AcDbVertex
100
AcDb3dPolylineVertex
 10
255.9836760281
 20
-156.0554494276
 30
-214.9546387774
 70
        32
  0
VERTEX
  5
7E9
100
AcDbEntity
  8
CK_LEVEL_1
  6
CONTINUOUS
 62
         2
100
AcDbVertex
100
AcDb3dPolylineVertex
 10
255.9152303374
 20
-156.1644642816
 30
-214.9606269994
 70
        32
  0
VERTEX
  5
7EB
100
AcDbEntity
  8
CK_LEVEL_1
  6
CONTINUOUS
 62
         2
100
AcDbVertex
100
AcDb3dPolylineVertex
 10
255.8455032012
 20
-156.2728059144
 30
-214.9667273334
 70
        32
  0
VERTEX
  5
7ED
100
AcDbEntity
  8
CK_LEVEL_1
  6
CONTINUOUS
 62
         2
100
AcDbVertex
100
AcDb3dPolylineVertex
 10
255.7745285458
 20
-156.3803990625
 30
-214.9729368111
 70
        32
  0
VERTEX
  5
7EF
100
AcDbEntity
  8
CK_LEVEL_1
  6
CONTINUOUS
 62
         2
100
AcDbVertex
100
AcDb3dPolylineVertex
 10
255.7023406985
 20
-156.4871761703
 30
-214.9792524294
 70
        32
  0
VERTEX
  5
7F1
100
AcDbEntity
  8
CK_LEVEL_1
  6
CONTINUOUS
 62
         2
100
AcDbVertex
100
AcDb3dPolylineVertex
 10
255.6289892234
 20
-156.5930799422
 30
-214.9856698519
 70
        32
  0
VERTEX
  5
7F3
100
AcDbEntity
  8
CK_LEVEL_1
  6
CONTINUOUS
 62
         2
100
AcDbVertex
100
AcDb3dPolylineVertex
 10
255.5545309021
 20
-156.6980505042
 30
-214.992184111
 70
        32
  0
VERTEX
  5
7F5
100
AcDbEntity
  8
CK_LEVEL_1
  6
CONTINUOUS
 62
         2
100
AcDbVertex
100
AcDb3dPolylineVertex
 10
255.4790225161
 20
-156.8020279826
 30
-214.9987902387
 70
        32
  0
VERTEX
  5
7F7
100
AcDbEntity
  8
CK_LEVEL_1
  6
CONTINUOUS
 62
         2
100
AcDbVertex
100
AcDb3dPolylineVertex
 10
255.4025208469
 20
-156.9049525032
 30
-215.0054832675
 70
        32
  0
VERTEX
  5
7F9
100
AcDbEntity
  8
CK_LEVEL_1
  6
CONTINUOUS
 62
         2
100
AcDbVertex
100
AcDb3dPolylineVertex
 10
255.3250826761
 20
-157.0067641922
 30
-215.0122582296
 70
        32
  0
VERTEX
  5
7FB
100
AcDbEntity
  8
CK_LEVEL_1
  6
CONTINUOUS
 62
         2
100
AcDbVertex
100
AcDb3dPolylineVertex
 10
255.2467647853
 20
-157.1074031757
 30
-215.0191101572
 70
        32
  0
VERTEX
  5
7FD
100
AcDbEntity
  8
CK_LEVEL_1
  6
CONTINUOUS
 62
         2
100
AcDbVertex
100
AcDb3dPolylineVertex
 10
255.167623956
 20
-157.2068095797
 30
-215.0260340826
 70
        32
  0
VERTEX
  5
7FF
100
AcDbEntity
  8
CK_LEVEL_1
  6
CONTINUOUS
 62
         2
100
AcDbVertex
100
AcDb3dPolylineVertex
 10
255.0877169697
 20
-157.3049235304
 30
-215.033025038
 70
        32
  0
VERTEX
  5
801
100
AcDbEntity
  8
CK_LEVEL_1
  6
CONTINUOUS
 62
         2
100
AcDbVertex
100
AcDb3dPolylineVertex
 10
255.0071044753
 20
-157.4016883636
 30
-215.0400777174
 70
        32
  0
VERTEX
  5
803
100
AcDbEntity
  8
CK_LEVEL_1
  6
CONTINUOUS
 62
         2
100
AcDbVertex
100
AcDb3dPolylineVertex
 10
254.9258610472
 20
-157.4970589745
 30
-215.0471855964
 70
        32
  0
VERTEX
  5
805
100
AcDbEntity
  8
CK_LEVEL_1
  6
CONTINUOUS
 62
         2
100
AcDbVertex
100
AcDb3dPolylineVertex
 10
254.844064356
 20
-157.5909928277
 30
-215.0543418796
 70
        32
  0
VERTEX
  5
807
100
AcDbEntity
  8
CK_LEVEL_1
  6
CONTINUOUS
 62
         2
100
AcDbVertex
100
AcDb3dPolylineVertex
 10
254.761792072
 20
-157.6834473879
 30
-215.0615397717
 70
        32
  0
VERTEX
  5
809
100
AcDbEntity
  8
CK_LEVEL_1
  6
CONTINUOUS
 62
         2
100
AcDbVertex
100
AcDb3dPolylineVertex
 10
254.6791218659
 20
-157.7743801198
 30
-215.0687724776
 70
        32
  0
VERTEX
  5
80B
100
AcDbEntity
  8
CK_LEVEL_1
  6
CONTINUOUS
 62
         2
100
AcDbVertex
100
AcDb3dPolylineVertex
 10
254.5961314079
 20
-157.8637484881
 30
-215.0760332018
 70
        32
  0
VERTEX
  5
80D
100
AcDbEntity
  8
CK_LEVEL_1
  6
CONTINUOUS
 62
         2
100
AcDbVertex
100
AcDb3dPolylineVertex
 10
254.5128983686
 20
-157.9515099575
 30
-215.0833151492
 70
        32
  0
VERTEX
  5
80F
100
AcDbEntity
  8
CK_LEVEL_1
  6
CONTINUOUS
 62
         2
100
AcDbVertex
100
AcDb3dPolylineVertex
 10
254.4295004185
 20
-158.0376219926
 30
-215.0906115244
 70
        32
  0
VERTEX
  5
811
100
AcDbEntity
  8
CK_LEVEL_1
  6
CONTINUOUS
 62
         2
100
AcDbVertex
100
AcDb3dPolylineVertex
 10
254.3460152279
 20
-158.1220420583
 30
-215.0979155322
 70
        32
  0
VERTEX
  5
813
100
AcDbEntity
  8
CK_LEVEL_1
  6
CONTINUOUS
 62
         2
100
AcDbVertex
100
AcDb3dPolylineVertex
 10
254.2613361289
 20
-158.2058944694
 30
-215.1053239934
 70
        32
  0
VERTEX
  5
815
100
AcDbEntity
  8
CK_LEVEL_1
  6
CONTINUOUS
 62
         2
100
AcDbVertex
100
AcDb3dPolylineVertex
 10
254.1749629441
 20
-158.2896500068
 30
-215.1128806679
 70
        32
  0
VERTEX
  5
817
100
AcDbEntity
  8
CK_LEVEL_1
  6
CONTINUOUS
 62
         2
100
AcDbVertex
100
AcDb3dPolylineVertex
 10
254.0869386512
 20
-158.3732309065
 30
-215.1205817956
 70
        32
  0
VERTEX
  5
819
100
AcDbEntity
  8
CK_LEVEL_1
  6
CONTINUOUS
 62
         2
100
AcDbVertex
100
AcDb3dPolylineVertex
 10
253.9973062281
 20
-158.4565594046
 30
-215.1284236165
 70
        32
  0
VERTEX
  5
81B
100
AcDbEntity
  8
CK_LEVEL_1
  6
CONTINUOUS
 62
         2
100
AcDbVertex
100
AcDb3dPolylineVertex
 10
253.9061086525
 20
-158.5395577372
 30
-215.1364023705
 70
        32
  0
VERTEX
  5
81D
100
AcDbEntity
  8
CK_LEVEL_1
  6
CONTINUOUS
 62
         2
100
AcDbVertex
100
AcDb3dPolylineVertex
 10
253.8133889023
 20
-158.6221481404
 30
-215.1445142975
 70
        32
  0
VERTEX
  5
81F
100
AcDbEntity
  8
CK_LEVEL_1
  6
CONTINUOUS
 62
         2
100
AcDbVertex
100
AcDb3dPolylineVertex
 10
253.7191899553
 20
-158.7042528501
 30
-215.1527556375
 70
        32
  0
VERTEX
  5
821
100
AcDbEntity
  8
CK_LEVEL_1
  6
CONTINUOUS
 62
         2
100
AcDbVertex
100
AcDb3dPolylineVertex
 10
253.6235547892
 20
-158.7857941024
 30
-215.1611226304
 70
        32
  0
VERTEX
  5
823
100
AcDbEntity
  8
CK_LEVEL_1
  6
CONTINUOUS
 62
         2
100
AcDbVertex
100
AcDb3dPolylineVertex
 10
253.5265263819
 20
-158.8666941335
 30
-215.1696115161
 70
        32
  0
VERTEX
  5
825
100
AcDbEntity
  8
CK_LEVEL_1
  6
CONTINUOUS
 62
         2
100
AcDbVertex
100
AcDb3dPolylineVertex
 10
253.428150313
 20
-158.9468783594
 30
-215.1782183069
 70
        32
  0
VERTEX
  5
827
100
AcDbEntity
  8
CK_LEVEL_1
  6
CONTINUOUS
 62
         2
100
AcDbVertex
100
AcDb3dPolylineVertex
 10
253.3284837126
 20
-159.0262863144
 30
-215.1869380045
 70
        32
  0
VERTEX
  5
829
100
AcDbEntity
  8
CK_LEVEL_1
  6
CONTINUOUS
 62
         2
100
AcDbVertex
100
AcDb3dPolylineVertex
 10
253.2275868843
 20
-159.1048614113
 30
-215.1957653332
 70
        32
  0
VERTEX
  5
82B
100
AcDbEntity
  8
CK_LEVEL_1
  6
CONTINUOUS
 62
         2
100
AcDbVertex
100
AcDb3dPolylineVertex
 10
253.1255201318
 20
-159.1825470633
 30
-215.2046950169
 70
        32
  0
VERTEX
  5
82D
100
AcDbEntity
  8
CK_LEVEL_1
  6
CONTINUOUS
 62
         2
100
AcDbVertex
100
AcDb3dPolylineVertex
 10
253.0223437588
 20
-159.2592866833
 30
-215.2137217799
 70
        32
  0
VERTEX
  5
82F
100
AcDbEntity
  8
CK_LEVEL_1
  6
CONTINUOUS
 62
         2
100
AcDbVertex
100
AcDb3dPolylineVertex
 10
252.9181180689
 20
-159.3350236843
 30
-215.2228403462
 70
        32
  0
VERTEX
  5
831
100
AcDbEntity
  8
CK_LEVEL_1
  6
CONTINUOUS
 62
         2
100
AcDbVertex
100
AcDb3dPolylineVertex
 10
252.8129033657
 20
-159.4097014794
 30
-215.23204544
 70
        32
  0
VERTEX
  5
833
100
AcDbEntity
  8
CK_LEVEL_1
  6
CONTINUOUS
 62
         2
100
AcDbVertex
100
AcDb3dPolylineVertex
 10
252.7067599528
 20
-159.4832634815
 30
-215.2413317853
 70
        32
  0
VERTEX
  5
835
100
AcDbEntity
  8
CK_LEVEL_1
  6
CONTINUOUS
 62
         2
100
AcDbVertex
100
AcDb3dPolylineVertex
 10
252.599748134
 20
-159.5556531036
 30
-215.2506941064
 70
        32
  0
VERTEX
  5
837
100
AcDbEntity
  8
CK_LEVEL_1
  6
CONTINUOUS
 62
         2
100
AcDbVertex
100
AcDb3dPolylineVertex
 10
252.491925658
 20
-159.6268210395
 30
-215.2601273507
 70
        32
  0
VERTEX
  5
839
100
AcDbEntity
  8
CK_LEVEL_1
  6
CONTINUOUS
 62
         2
100
AcDbVertex
100
AcDb3dPolylineVertex
 10
252.3833604433
 20
-159.6967333313
 30
-215.2696255762
 70
        32
  0
VERTEX
  5
83B
100
AcDbEntity
  8
CK_LEVEL_1
  6
CONTINUOUS
 62
         2
100
AcDbVertex
100
AcDb3dPolylineVertex
 10
252.2741280472
 20
-159.7653564145
 30
-215.2791821726
 70
        32
  0
VERTEX
  5
83D
100
AcDbEntity
  8
CK_LEVEL_1
  6
CONTINUOUS
 62
         2
100
AcDbVertex
100
AcDb3dPolylineVertex
 10
252.1643040275
 20
-159.8326567245
 30
-215.2887905293
 70
        32
  0
VERTEX
  5
83F
100
AcDbEntity
  8
CK_LEVEL_1
  6
CONTINUOUS
 62
         2
100
AcDbVertex
100
AcDb3dPolylineVertex
 10
252.0539639417
 20
-159.8986006969
 30
-215.2984440359
 70
        32
  0
VERTEX
  5
841
100
AcDbEntity
  8
CK_LEVEL_1
  6
CONTINUOUS
 62
         2
100
AcDbVertex
100
AcDb3dPolylineVertex
 10
251.9431833474
 20
-159.9631547671
 30
-215.3081360821
 70
        32
  0
VERTEX
  5
843
100
AcDbEntity
  8
CK_LEVEL_1
  6
CONTINUOUS
 62
         2
100
AcDbVertex
100
AcDb3dPolylineVertex
 10
251.8320378021
 20
-160.0262853706
 30
-215.3178600573
 70
        32
  0
VERTEX
  5
845
100
AcDbEntity
  8
CK_LEVEL_1
  6
CONTINUOUS
 62
         2
100
AcDbVertex
100
AcDb3dPolylineVertex
 10
251.7206028634
 20
-160.087958943
 30
-215.3276093511
 70
        32
  0
VERTEX
  5
847
100
AcDbEntity
  8
CK_LEVEL_1
  6
CONTINUOUS
 62
         2
100
AcDbVertex
100
AcDb3dPolylineVertex
 10
251.6089540889
 20
-160.1481419195
 30
-215.3373773532
 70
        32
  0
VERTEX
  5
849
100
AcDbEntity
  8
CK_LEVEL_1
  6
CONTINUOUS
 62
         2
100
AcDbVertex
100
AcDb3dPolylineVertex
 10
251.4971693883
 20
-160.206805192
 30
-215.3471572472
 70
        32
  0
VERTEX
  5
84B
100
AcDbEntity
  8
CK_LEVEL_1
  6
CONTINUOUS
 62
         2
100
AcDbVertex
100
AcDb3dPolylineVertex
 10
251.38533513
 20
-160.2639356773
 30
-215.356941477
 70
        32
  0
VERTEX
  5
84D
100
AcDbEntity
  8
CK_LEVEL_1
  6
CONTINUOUS
 62
         2
100
AcDbVertex
100
AcDb3dPolylineVertex
 10
251.2735395596
 20
-160.3195238488
 30
-215.3667223221
 70
        32
  0
VERTEX
  5
84F
100
AcDbEntity
  8
CK_LEVEL_1
  6
CONTINUOUS
 62
         2
100
AcDbVertex
100
AcDb3dPolylineVertex
 10
251.1618709227
 20
-160.3735601801
 30
-215.3764920619
 70
        32
  0
VERTEX
  5
851
100
AcDbEntity
  8
CK_LEVEL_1
  6
CONTINUOUS
 62
         2
100
AcDbVertex
100
AcDb3dPolylineVertex
 10
251.0504174649
 20
-160.4260351444
 30
-215.386242976
 70
        32
  0
VERTEX
  5
853
100
AcDbEntity
  8
CK_LEVEL_1
  6
CONTINUOUS
 62
         2
100
AcDbVertex
100
AcDb3dPolylineVertex
 10
250.9392674319
 20
-160.4769392154
 30
-215.3959673438
 70
        32
  0
VERTEX
  5
855
100
AcDbEntity
  8
CK_LEVEL_1
  6
CONTINUOUS
 62
         2
100
AcDbVertex
100
AcDb3dPolylineVertex
 10
250.8285090693
 20
-160.5262628664
 30
-215.4056574449
 70
        32
  0
VERTEX
  5
857
100
AcDbEntity
  8
CK_LEVEL_1
  6
CONTINUOUS
 62
         2
100
AcDbVertex
100
AcDb3dPolylineVertex
 10
250.7182306227
 20
-160.5739965709
 30
-215.4153055588
 70
        32
  0
VERTEX
  5
859
100
AcDbEntity
  8
CK_LEVEL_1
  6
CONTINUOUS
 62
         2
100
AcDbVertex
100
AcDb3dPolylineVertex
 10
250.6085203377
 20
-160.6201308022
 30
-215.424903965
 70
        32
  0
VERTEX
  5
85B
100
AcDbEntity
  8
CK_LEVEL_1
  6
CONTINUOUS
 62
         2
100
AcDbVertex
100
AcDb3dPolylineVertex
 10
250.4978296275
 20
-160.6653191332
 30
-215.4345881473
 70
        32
  0
VERTEX
  5
85D
100
AcDbEntity
  8
CK_LEVEL_1
  6
CONTINUOUS
 62
         2
100
AcDbVertex
100
AcDb3dPolylineVertex
 10
250.3856040848
 20
-160.7097673528
 30
-215.4444066101
 70
        32
  0
VERTEX
  5
85F
100
AcDbEntity
  8
CK_LEVEL_1
  6
CONTINUOUS
 62
         2
100
AcDbVertex
100
AcDb3dPolylineVertex
 10
250.2719133331
 20
-160.7534199206
 30
-215.454353262
 70
        32
  0
VERTEX
  5
861
100
AcDbEntity
  8
CK_LEVEL_1
  6
CONTINUOUS
 62
         2
100
AcDbVertex
100
AcDb3dPolylineVertex
 10
250.1568269957
 20
-160.7962212962
 30
-215.4644220118
 70
        32
  0
VERTEX
  5
863
100
AcDbEntity
  8
CK_LEVEL_1
  6
CONTINUOUS
 62
         2
100
AcDbVertex
100
AcDb3dPolylineVertex
 10
250.0404146958
 20
-160.8381159393
 30
-215.4746067684
 70
        32
  0
VERTEX
  5
865
100
AcDbEntity
  8
CK_LEVEL_1
  6
CONTINUOUS
 62
         2
100
AcDbVertex
100
AcDb3dPolylineVertex
 10
249.9227460568
 20
-160.8790483095
 30
-215.4849014403
 70
        32
  0
VERTEX
  5
867
100
AcDbEntity
  8
CK_LEVEL_1
  6
CONTINUOUS
 62
         2
100
AcDbVertex
100
AcDb3dPolylineVertex
 10
249.8038907022
 20
-160.9189628665
 30
-215.4952999365
 70
        32
  0
VERTEX
  5
869
100
AcDbEntity
  8
CK_LEVEL_1
  6
CONTINUOUS
 62
         2
100
AcDbVertex
100
AcDb3dPolylineVertex
 10
249.6839182551
 20
-160.9578040698
 30
-215.5057961655
 70
        32
  0
VERTEX
  5
86B
100
AcDbEntity
  8
CK_LEVEL_1
  6
CONTINUOUS
 62
         2
100
AcDbVertex
100
AcDb3dPolylineVertex
 10
249.5628983389
 20
-160.9955163792
 30
-215.5163840363
 70
        32
  0
VERTEX
  5
86D
100
AcDbEntity
  8
CK_LEVEL_1
  6
CONTINUOUS
 62
         2
100
AcDbVertex
100
AcDb3dPolylineVertex
 10
249.4409017727
 20
-161.0320481978
 30
-215.5270573528
 70
        32
  0
VERTEX
  5
86F
100
AcDbEntity
  8
CK_LEVEL_1
  6
CONTINUOUS
 62
         2
100
AcDbVertex
100
AcDb3dPolylineVertex
 10
249.3180046813
 20
-161.0673654265
 30
-215.5378094551
 70
        32
  0
VERTEX
  5
871
100
AcDbEntity
  8
CK_LEVEL_1
  6
CONTINUOUS
 62
         2
100
AcDbVertex
100
AcDb3dPolylineVertex
 10
249.1942846463
 20
-161.1014387712
 30
-215.5486335556
 70
        32
  0
VERTEX
  5
873
100
AcDbEntity
  8
CK_LEVEL_1
  6
CONTINUOUS
 62
         2
100
AcDbVertex
100
AcDb3dPolylineVertex
 10
249.0698192495
 20
-161.1342389377
 30
-215.5595228668
 70
        32
  0
VERTEX
  5
875
100
AcDbEntity
  8
CK_LEVEL_1
  6
CONTINUOUS
 62
         2
100
AcDbVertex
100
AcDb3dPolylineVertex
 10
248.9446860725
 20
-161.1657366321
 30
-215.5704706012
 70
        32
  0
VERTEX
  5
877
100
AcDbEntity
  8
CK_LEVEL_1
  6
CONTINUOUS
 62
         2
100
AcDbVertex
100
AcDb3dPolylineVertex
 10
248.8189626971
 20
-161.1959025602
 30
-215.5814699713
 70
        32
  0
VERTEX
  5
879
100
AcDbEntity
  8
CK_LEVEL_1
  6
CONTINUOUS
 62
         2
100
AcDbVertex
100
AcDb3dPolylineVertex
 10
248.692726705
 20
-161.224707428
 30
-215.5925141895
 70
        32
  0
VERTEX
  5
87B
100
AcDbEntity
  8
CK_LEVEL_1
  6
CONTINUOUS
 62
         2
100
AcDbVertex
100
AcDb3dPolylineVertex
 10
248.5660556779
 20
-161.2521219413
 30
-215.6035964684
 70
        32
  0
VERTEX
  5
87D
100
AcDbEntity
  8
CK_LEVEL_1
  6
CONTINUOUS
 62
         2
100
AcDbVertex
100
AcDb3dPolylineVertex
 10
248.4390271975
 20
-161.2781168061
 30
-215.6147100204
 70
        32
  0
VERTEX
  5
87F
100
AcDbEntity
  8
CK_LEVEL_1
  6
CONTINUOUS
 62
         2
100
AcDbVertex
100
AcDb3dPolylineVertex
 10
248.3117137202
 20
-161.3026684799
 30
-215.6258485064
 70
        32
  0
VERTEX
  5
881
100
AcDbEntity
  8
CK_LEVEL_1
  6
CONTINUOUS
 62
         2
100
AcDbVertex
100
AcDb3dPolylineVertex
 10
248.1841912663
 20
-161.3257715254
 30
-215.6370052754
 70
        32
  0
VERTEX
  5
883
100
AcDbEntity
  8
CK_LEVEL_1
  6
CONTINUOUS
 62
         2
100
AcDbVertex
100
AcDb3dPolylineVertex
 10
248.0565427634
 20
-161.3474238061
 30
-215.6481730724
 70
        32
  0
VERTEX
  5
885
100
AcDbEntity
  8
CK_LEVEL_1
  6
CONTINUOUS
 62
         2
100
AcDbVertex
100
AcDb3dPolylineVertex
 10
247.9288511388
 20
-161.3676231857
 30
-215.6593446419
 70
        32
  0
VERTEX
  5
887
100
AcDbEntity
  8
CK_LEVEL_1
  6
CONTINUOUS
 62
         2
100
AcDbVertex
100
AcDb3dPolylineVertex
 10
247.8011993202
 20
-161.3863675279
 30
-215.6705127289
 70
        32
  0
VERTEX
  5
889
100
AcDbEntity
  8
CK_LEVEL_1
  6
CONTINUOUS
 62
         2
100
AcDbVertex
100
AcDb3dPolylineVertex
 10
247.673670235
 20
-161.4036546963
 30
-215.6816700782
 70
        32
  0
VERTEX
  5
88B
100
AcDbEntity
  8
CK_LEVEL_1
  6
CONTINUOUS
 62
         2
100
AcDbVertex
100
AcDb3dPolylineVertex
 10
247.5463468107
 20
-161.4194825544
 30
-215.6928094344
 70
        32
  0
VERTEX
  5
88D
100
AcDbEntity
  8
CK_LEVEL_1
  6
CONTINUOUS
 62
         2
100
AcDbVertex
100
AcDb3dPolylineVertex
 10
247.4193119748
 20
-161.433848966
 30
-215.7039235424
 70
        32
  0
VERTEX
  5
88F
100
AcDbEntity
  8
CK_LEVEL_1
  6
CONTINUOUS
 62
         2
100
AcDbVertex
100
AcDb3dPolylineVertex
 10
247.2926486548
 20
-161.4467517947
 30
-215.715005147
 70
        32
  0
VERTEX
  5
891
100
AcDbEntity
  8
CK_LEVEL_1
  6
CONTINUOUS
 62
         2
100
AcDbVertex
100
AcDb3dPolylineVertex
 10
247.1881687842
 20
-161.4563260637
 30
-215.7241459512
 70
        32
  0
VERTEX
  5
893
100
AcDbEntity
  8
CK_LEVEL_1
  6
CONTINUOUS
 62
         2
100
AcDbVertex
100
AcDb3dPolylineVertex
 10
247.0840487135
 20
-161.464914357
 30
-215.7332552771
 70
        32
  0
VERTEX
  5
895
100
AcDbEntity
  8
CK_LEVEL_1
  6
CONTINUOUS
 62
         2
100
AcDbVertex
100
AcDb3dPolylineVertex
 10
246.9803368889
 20
-161.4725295586
 30
-215.742328886
 70
        32
  0
VERTEX
  5
897
100
AcDbEntity
  8
CK_LEVEL_1
  6
CONTINUOUS
 62
         2
100
AcDbVertex
100
AcDb3dPolylineVertex
 10
246.8770817566
 20
-161.4791845524
 30
-215.7513625395
 70
        32
  0
VERTEX
  5
899
100
AcDbEntity
  8
CK_LEVEL_1
  6
CONTINUOUS
 62
         2
100
AcDbVertex
100
AcDb3dPolylineVertex
 10
246.7743317628
 20
-161.4848922226
 30
-215.7603519992
 70
        32
  0
VERTEX
  5
89B
100
AcDbEntity
  8
CK_LEVEL_1
  6
CONTINUOUS
 62
         2
100
AcDbVertex
100
AcDb3dPolylineVertex
 10
246.6721353536
 20
-161.4896654532
 30
-215.7692930264
 70
        32
  0
VERTEX
  5
89D
100
AcDbEntity
  8
CK_LEVEL_1
  6
CONTINUOUS
 62
         2
100
AcDbVertex
100
AcDb3dPolylineVertex
 10
246.5705409754
 20
-161.4935171282
 30
-215.7781813828
 70
        32
  0
VERTEX
  5
89F
100
AcDbEntity
  8
CK_LEVEL_1
  6
CONTINUOUS
 62
         2
100
AcDbVertex
100
AcDb3dPolylineVertex
 10
246.4695970743
 20
-161.4964601316
 30
-215.7870128298
 70
        32
  0
VERTEX
  5
8A1
100
AcDbEntity
  8
CK_LEVEL_1
  6
CONTINUOUS
 62
         2
100
AcDbVertex
100
AcDb3dPolylineVertex
 10
246.3693520966
 20
-161.4985073475
 30
-215.7957831289
 70
        32
  0
SEQEND
  5
8A3
100
AcDbEntity
  8
CK_LEVEL_1
  6
CONTINUOUS
 62
         2
  0
ARC
  5
8A4
100
AcDbEntity
  8
CK_LEVEL_1
  6
CONTINUOUS
 62
         2
100
AcDbCircle
 10
-150.0
 20
226.8092808438
 30
236.4471188958
 40
11.5
210
0.0871557427476469
220
0.0
230
-0.9961946980917467
100
AcDbArc
 50
359.076848954
 51
540.923151046
  0
POLYLINE
  5
8A6
100
AcDbEntity
  8
CK_LEVEL_1
  6
CONTINUOUS
 62
         2
100
AcDb3dPolyline
 66
         1
 10
0.0
 20
0.0
 30
-215.7957831289
 70
         8
  0
VERTEX
  5
8A8
100
AcDbEntity
  8
CK_LEVEL_1
  6
CONTINUOUS
 62
         2
100
AcDbVertex
100
AcDb3dPolylineVertex
 10
246.3693520966
 20
-161.4985073475
 30
-215.7957831289
 70
        32
  0
VERTEX
  5
8AA
100
AcDbEntity
  8
CK_LEVEL_1
  6
CONTINUOUS
 62
         2
100
AcDbVertex
100
AcDb3dPolylineVertex
 10
246.4555446092
 20
-161.499020212
 30
-216.3856366121
 70
        32
  0
VERTEX
  5
8AC
100
AcDbEntity
  8
CK_LEVEL_1
  6
CONTINUOUS
 62
         2
100
AcDbVertex
100
AcDb3dPolylineVertex
 10
246.5380019217
 20
-161.4994023915
 30
-216.9742960115
 70
        32
  0
VERTEX
  5
8AE
100
AcDbEntity
  8
CK_LEVEL_1
  6
CONTINUOUS
 62
         2
100
AcDbVertex
100
AcDb3dPolylineVertex
 10
246.6167495973
 20
-161.4996727086
 30
-217.5617406066
 70
        32
  0
VERTEX
  5
8B0
100
AcDbEntity
  8
CK_LEVEL_1
  6
CONTINUOUS
 62
         2
100
AcDbVertex
100
AcDb3dPolylineVertex
 10
246.6918131993
 20
-161.4998499864
 30
-218.1479496772
 70
        32
  0
VERTEX
  5
8B2
100
AcDbEntity
  8
CK_LEVEL_1
  6
CONTINUOUS
 62
         2
100
AcDbVertex
100
AcDb3dPolylineVertex
 10
246.7632182909
 20
-161.4999530475
 30
-218.7329025029
 70
        32
  0
VERTEX
  5
8B4
100
AcDbEntity
  8
CK_LEVEL_1
  6
CONTINUOUS
 62
         2
100
AcDbVertex
100
AcDb3dPolylineVertex
 10
246.8309904352
 20
-161.5000007149
 30
-219.3165783632
 70
        32
  0
VERTEX
  5
8B6
100
AcDbEntity
  8
CK_LEVEL_1
  6
CONTINUOUS
 62
         2
100
AcDbVertex
100
AcDb3dPolylineVertex
 10
246.8951551956
 20
-161.5000118112
 30
-219.8989565379
 70
        32
  0
VERTEX
  5
8B8
100
AcDbEntity
  8
CK_LEVEL_1
  6
CONTINUOUS
 62
         2
100
AcDbVertex
100
AcDb3dPolylineVertex
 10
246.9557381353
 20
-161.5000051594
 30
-220.4800163066
 70
        32
  0
VERTEX
  5
8BA
100
AcDbEntity
  8
CK_LEVEL_1
  6
CONTINUOUS
 62
         2
100
AcDbVertex
100
AcDb3dPolylineVertex
 10
247.0127648174
 20
-161.4999995822
 30
-221.0597369488
 70
        32
  0
SEQEND
  5
8BC
100
AcDbEntity
  8
CK_LEVEL_1
  6
CONTINUOUS
 62
         2
  0
POLYLINE
  5
8BE
100
AcDbEntity
  8
CK_LEVEL_1
  6
CONTINUOUS
 62
         2
100
AcDb3dPolyline
 66
         1
 10
0.0
 20
0.0
 30
-221.0597369488
 70
         8
  0
VERTEX
  5
8C0
100
AcDbEntity
  8
CK_LEVEL_1
  6
CONTINUOUS
 62
         2
100
AcDbVertex
100
AcDb3dPolylineVertex
 10
247.0127648174
 20
-138.5000004178
 30
-221.0597369488
 70
        32
  0
VERTEX
  5
8C2
100
AcDbEntity
  8
CK_LEVEL_1
  6
CONTINUOUS
 62
         2
100
AcDbVertex
100
AcDb3dPolylineVertex
 10
246.9557381409
 20
-138.4999948406
 30
-220.4800163658
 70
        32
  0
VERTEX
  5
8C4
100
AcDbEntity
  8
CK_LEVEL_1
  6
CONTINUOUS
 62
         2
100
AcDbVertex
100
AcDb3dPolylineVertex
 10
246.8951552039
 20
-138.4999881888
 30
-219.8989566269
 70
        32
  0
VERTEX
  5
8C6
100
AcDbEntity
  8
CK_LEVEL_1
  6
CONTINUOUS
 62
         2
100
AcDbVertex
100
AcDb3dPolylineVertex
 10
246.830990444
 20
-138.4999992852
 30
-219.3165784586
 70
        32
  0
VERTEX
  5
8C8
100
AcDbEntity
  8
CK_LEVEL_1
  6
CONTINUOUS
 62
         2
100
AcDbVertex
100
AcDb3dPolylineVertex
 10
246.7632182985
 20
-138.5000469525
 30
-218.7329025878
 70
        32
  0
VERTEX
  5
8CA
100
AcDbEntity
  8
CK_LEVEL_1
  6
CONTINUOUS
 62
         2
100
AcDbVertex
100
AcDb3dPolylineVertex
 10
246.6918132048
 20
-138.5001500136
 30
-218.1479497411
 70
        32
  0
VERTEX
  5
8CC
100
AcDbEntity
  8
CK_LEVEL_1
  6
CONTINUOUS
 62
         2
100
AcDbVertex
100
AcDb3dPolylineVertex
 10
246.6167496004
 20
-138.5003272914
 30
-217.5617406452
 70
        32
  0
VERTEX
  5
8CE
100
AcDbEntity
  8
CK_LEVEL_1
  6
CONTINUOUS
 62
         2
100
AcDbVertex
100
AcDb3dPolylineVertex
 10
246.5380019226
 20
-138.5005976086
 30
-216.9742960267
 70
        32
  0
VERTEX
  5
8D0
100
AcDbEntity
  8
CK_LEVEL_1
  6
CONTINUOUS
 62
         2
100
AcDbVertex
100
AcDb3dPolylineVertex
 10
246.4555446088
 20
-138.500979788
 30
-216.3856366124
 70
        32
  0
VERTEX
  5
8D2
100
AcDbEntity
  8
CK_LEVEL_1
  6
CONTINUOUS
 62
         2
100
AcDbVertex
100
AcDb3dPolylineVertex
 10
246.3693520966
 20
-138.5014926525
 30
-215.7957831289
 70
        32
  0
SEQEND
  5
8D4
100
AcDbEntity
  8
CK_LEVEL_1
  6
CONTINUOUS
 62
         2
  0
CIRCLE
  5
8D5
100
AcDbEntity
  8
CK_LEVEL_1
  6
CONTINUOUS
 62
         2
100
AcDbCircle
 10
150.0
 20
226.8092808438
 30
-256.9471188958
 40
12.2
210
-0.0871557427476554
220
0.0
230
0.9961946980917458
  0
CIRCLE
  5
8D6
100
AcDbEntity
  8
CK_LEVEL_1
  6
CONTINUOUS
 62
         2
100
AcDbCircle
 10
150.0
 20
226.8092808438
 30
-256.9471188958
 40
13.5
210
-0.0871557427476554
220
0.0
230
0.9961946980917458
  0
CIRCLE
  5
8D7
100
AcDbEntity
  8
CK_LEVEL_1
  6
CONTINUOUS
 62
         2
100
AcDbCircle
 10
150.0
 20
226.8092808438
 30
-242.5344873441
 40
13.5
210
-0.0871557427476554
220
0.0
230
0.9961946980917458
  0
CIRCLE
  5
8D8
100
AcDbEntity
  8
CK_LEVEL_1
  6
CONTINUOUS
 62
         2
100
AcDbCircle
 10
-150.0
 20
-176.2016262
 30
197.2747415364
 40
11.5
210
1.0
220
0.0
230
0.0
  0
CIRCLE
  5
8D9
100
AcDbEntity
  8
CK_LEVEL_1
  6
CONTINUOUS
 62
         2
100
AcDbCircle
 10
150.0
 20
-176.2016262
 30
-197.2747415364
 40
13.5
210
-1.0
220
0.0
230
0.0
  0
ENDBLK
  5
8DA
100
AcDbEntity
  8
0
  6
CONTINUOUS
100
AcDbBlockEnd
  0
ENDSEC
  0
SECTION
  2
ENTITIES
  0
INSERT
  5
6C
100
AcDbEntity
  8
0
  6
CONTINUOUS
100
AcDbBlockReference
  2
CKCOLL2295
 10
0.0
 20
0.0
 30
0.0
  0
INSERT
  5
546
100
AcDbEntity
  8
0
  6
CONTINUOUS
100
AcDbBlockReference
  2
CKCOLL2287
 10
0.0
 20
0.0
 30
0.0
  0
INSERT
  5
58D
100
AcDbEntity
  8
0
  6
CONTINUOUS
100
AcDbBlockReference
  2
CKCOLL2326
 10
0.0
 20
0.0
 30
0.0
  0
INSERT
  5
8DC
100
AcDbEntity
  8
0
  6
CONTINUOUS
100
AcDbBlockReference
  2
CKCOLL2330
 10
0.0
 20
0.0
 30
0.0
  0
ENDSEC
  0
SECTION
  2
OBJECTS
  0
DICTIONARY
  5
19
100
AcDbDictionary
  3
ACAD_GROUP
350
1A
  3
ACAD_MLINESTYLE
350
1B
  0
DICTIONARY
  5
1A
102
{ACAD_REACTORS
330
19
102
}
100
AcDbDictionary
  0
DICTIONARY
  5
1B
102
{ACAD_REACTORS
330
19
102
}
100
AcDbDictionary
  3
STANDARD
350
1C
  0
MLINESTYLE
  5
1C
102
{ACAD_REACTORS
330
1B
102
}
100
AcDbMlineStyle
  2
STANDARD
 70
         0
  3

 62
         0
 51
90.0
 52
90.0
 71
         2
 49
0.5
 62
       256
  6
BYLAYER
 49
-0.5
 62
       256
  6
BYLAYER
  0
ENDSEC
  0
EOF
