  0
SECTION
  2
HEADER
  9
$ACADVER
  1
AC1014
  9
$ACADMAINTVER
 70
         0
  9
$DWGCODEPAGE
  3
DOS850
  9
$INSBASE
 10
0.0
 20
0.0
 30
0.0
  9
$EXTMIN
 10
-34.4526917191
 20
-157.604783684
 30
0.0
  9
$EXTMAX
 10
441.6007352151
 20
164.4092036806
 30
0.0
  9
$LIMMIN
 10
0.0
 20
0.0
  9
$LIMMAX
 10
0.0
 20
0.0
  9
$ORTHOMODE
 70
         0
  9
$REGENMODE
 70
         1
  9
$FILLMODE
 70
         1
  9
$QTEXTMODE
 70
         0
  9
$MIRRTEXT
 70
         1
  9
$DRAGMODE
 70
         2
  9
$LTSCALE
 40
1.0
  9
$OSMODE
 70
         0
  9
$ATTMODE
 70
         1
  9
$TEXTSIZE
 40
5.0
  9
$TRACEWID
 40
0.05
  9
$TEXTSTYLE
  7
STANDARD
  9
$CLAYER
  8
0
  9
$CELTYPE
  6
CONTINUOUS
  9
$CECOLOR
 62
         3
  9
$CELTSCALE
 40
1.0
  9
$DELOBJ
 70
         1
  9
$DISPSILH
 70
         0
  9
$DIMSCALE
 40
1.0
  9
$DIMASZ
 40
0.18
  9
$DIMEXO
 40
0.0625
  9
$DIMDLI
 40
0.38
  9
$DIMRND
 40
0.0
  9
$DIMDLE
 40
0.0
  9
$DIMEXE
 40
0.25
  9
$DIMTP
 40
0.01
  9
$DIMTM
 40
-0.01
  9
$DIMTXT
 40
5.0
  9
$DIMCEN
 40
0.09
  9
$DIMTSZ
 40
0.0
  9
$DIMTOL
 70
         0
  9
$DIMLIM
 70
         0
  9
$DIMTIH
 70
         1
  9
$DIMTOH
 70
         1
  9
$DIMSE1
 70
         0
  9
$DIMSE2
 70
         0
  9
$DIMTAD
 70
         0
  9
$DIMZIN
 70
         0
  9
$DIMBLK
  1

  9
$DIMASO
 70
         1
  9
$DIMSHO
 70
         1
  9
$DIMPOST
  1

  9
$DIMAPOST
  1

  9
$DIMALT
 70
         0
  9
$DIMALTD
 70
         2
  9
$DIMALTF
 40
25.4
  9
$DIMLFAC
 40
1.0
  9
$DIMTOFL
 70
         0
  9
$DIMTVP
 40
0.0
  9
$DIMTIX
 70
         0
  9
$DIMSOXD
 70
         0
  9
$DIMSAH
 70
         0
  9
$DIMBLK1
  1

  9
$DIMBLK2
  1

  9
$DIMSTYLE
  2
STANDARD
  9
$DIMCLRD
 70
         0
  9
$DIMCLRE
 70
         0
  9
$DIMCLRT
 70
         3
  9
$DIMTFAC
 40
1.0
  9
$DIMGAP
 40
0.09
  9
$DIMJUST
 70
         0
  9
$DIMSD1
 70
         0
  9
$DIMSD2
 70
         0
  9
$DIMTOLJ
 70
         1
  9
$DIMTZIN
 70
         0
  9
$DIMALTZ
 70
         0
  9
$DIMALTTZ
 70
         0
  9
$DIMFIT
 70
         3
  9
$DIMUPT
 70
         0
  9
$DIMUNIT
 70
         2
  9
$DIMDEC
 70
         4
  9
$DIMTDEC
 70
         4
  9
$DIMALTU
 70
         2
  9
$DIMALTTD
 70
         2
  9
$DIMTXSTY
  7
STANDARD
  9
$DIMAUNIT
 70
         0
  9
$LUNITS
 70
         2
  9
$LUPREC
 70
        10
  9
$SKETCHINC
 40
0.1
  9
$FILLETRAD
 40
0.0
  9
$AUNITS
 70
         0
  9
$AUPREC
 70
         0
  9
$MENU
  1
acad
  9
$ELEVATION
 40
0.0
  9
$PELEVATION
 40
0.0
  9
$THICKNESS
 40
0.0
  9
$LIMCHECK
 70
         0
  9
$BLIPMODE
 70
         1
  9
$CHAMFERA
 40
0.0
  9
$CHAMFERB
 40
0.0
  9
$CHAMFERC
 40
0.0
  9
$CHAMFERD
 40
0.0
  9
$SKPOLY
 70
         0
  9
$TDCREATE
 40
0.000000000
  9
$TDUPDATE
 40
0.000000000
  9
$TDINDWG
 40
0.0000000000
  9
$TDUSRTIMER
 40
0.0000000000
  9
$USRTIMER
 70
         1
  9
$ANGBASE
 50
0.0
  9
$ANGDIR
 70
         0
  9
$PDMODE
 70
         2
  9
$PDSIZE
 40
0.0
  9
$PLINEWID
 40
0.0
  9
$COORDS
 70
         0
  9
$SPLFRAME
 70
         0
  9
$SPLINETYPE
 70
         6
  9
$SPLINESEGS
 70
         8
  9
$ATTDIA
 70
         0
  9
$ATTREQ
 70
         1
  9
$HANDLING
 70
         1
  9
$HANDSEED
  5
18D
  9
$SURFTAB1
 70
         6
  9
$SURFTAB2
 70
         6
  9
$SURFTYPE
 70
         6
  9
$SURFU
 70
         6
  9
$SURFV
 70
         6
  9
$UCSNAME
  2

  9
$UCSORG
 10
0.0
 20
0.0
 30
0.0
  9
$UCSXDIR
 10
1.0
 20
0.0
 30
0.0
  9
$UCSYDIR
 10
0.0
 20
1.0
 30
0.0
  9
$PUCSNAME
  2

  9
$PUCSORG
 10
0.0
 20
0.0
 30
0.0
  9
$PUCSXDIR
 10
1.0
 20
0.0
 30
0.0
  9
$PUCSYDIR
 10
0.0
 20
1.0
 30
0.0
  9
$USERI1
 70
         0
  9
$USERI2
 70
         0
  9
$USERI3
 70
         0
  9
$USERI4
 70
         0
  9
$USERI5
 70
         0
  9
$USERR1
 40
0.0
  9
$USERR2
 40
0.0
  9
$USERR3
 40
0.0
  9
$USERR4
 40
0.0
  9
$USERR5
 40
0.0
  9
$WORLDVIEW
 70
         1
  9
$SHADEDGE
 70
         3
  9
$SHADEDIF
 70
        70
  9
$TILEMODE
 70
         1
  9
$MAXACTVP
 70
        16
  9
$PINSBASE
 10
0.0
 20
0.0
 30
0.0
  9
$PLIMCHECK
 70
         0
  9
$PEXTMIN
 10
1.0000000000E+20
 20
1.0000000000E+20
 30
1.0000000000E+20
  9
$PEXTMAX
 10
-1.0000000000E+20
 20
-1.0000000000E+20
 30
-1.0000000000E+20
  9
$PLIMMIN
 10
0.0
 20
0.0
  9
$PLIMMAX
 10
12.0
 20
9.0
  9
$UNITMODE
 70
         0
  9
$VISRETAIN
 70
         0
  9
$PLINEGEN
 70
         1
  9
$PSLTSCALE
 70
         0
  9
$TREEDEPTH
 70
      3020
  9
$PICKSTYLE
 70
         1
  9
$CMLSTYLE
  2
STANDARD
  9
$CMLJUST
 70
         0
  9
$CMLSCALE
 40
1.0
  9
$PROXYGRAPHICS
 70
         0
  9
$MEASUREMENT
 70
         0
  0
ENDSEC
  0
SECTION
  2
CLASSES
  0
CLASS
  1
LWPOLYLINE
  2
AcDbPolyline
  3
"AutoCAD"
 90
        0
280
         0
281
         1
  0
CLASS
  1
IMAGE
  2
AcDbRasterImage
  3
ISM
 90
      127
280
         0
281
         1
  0
CLASS
  1
OLE2FRAME
  2
AcDbOle2Frame
  3
""
 90
        0
280
         0
281
         1
  0
CLASS
  1
HATCH
  2
AcDbHatch
  3
"ACAD_SEDONA"
 90
        0
280
         0
281
         1
  0
CLASS
  1
DICTIONARYVAR
  2
AcDbDictionaryVar
  3
"AutoCAD"
 90
        0
280
         0
281
         0
  0
CLASS
  1
RASTERVARIABLES
  2
AcDbRasterVariables
  3
ISM
 90
        0
280
         0
281
         0
  0
CLASS
  1
IMAGEDEF
  2
AcDbRasterImageDef
  3
ISM
 90
        0
280
         0
281
         0
  0
CLASS
  1
IMAGEDEF_REACTOR
  2
AcDbRasterImageDefReactor
  3
ISM
 90
        1
280
         0
281
         0
  0
CLASS
  1
IDBUFFER
  2
AcDbIdBuffer
  3
"Acad"
 90
        0
280
         0
281
         0
  0
CLASS
  1
SPATIAL_FILTER
  2
AcDbSpatialFilter
  3
"Acad"
 90
        0
280
         0
281
         0
  0
CLASS
  1
XRECORD
  2
AcDbXrecord
  3
"<Built In>"
 90
        0
280
         0
281
         0
  0
CLASS
  1
SORTENTSTABLE
  2
AcDbSortentsTable
  3
"AutoCAD"
 90
        0
280
         0
281
         0
  0
CLASS
  1
LAYER_INDEX
  2
AcDbLayerIndex
  3
"Acad"
 90
        0
280
         0
281
         0
  0
CLASS
  1
SPATIAL_INDEX
  2
AcDbSpatialIndex
  3
"Acad"
 90
        0
280
         0
281
         0
  0
CLASS
  1
OBJECT_PTR
  2
CAseDLPNTableRecord
  3
"ASE-LPNTableRecord"
 90
        1
280
         0
281
         0
  0
CLASS
  1
LAYOUT
  2
AcDbLayout
  3
"AutoCAD 2000"
 90
        1
280
         0
281
         0
  0
CLASS
  1
PLOTSETTINGS
  2
AcDbPlotSettings
  3
"AutoCAD 2000"
 90
        1
280
         0
281
         0
  0
CLASS
  1
ACDBDICTIONARYWDFLT
  2
AcDbDictionaryWithDefault
  3
"AutoCAD 2000"
 90
        1
280
         0
281
         0
  0
CLASS
  1
ACDBPLACEHOLDER
  2
AcDbPlaceHolder
  3
"AutoCAD 2000"
 90
        1
280
         0
281
         0
  0
CLASS
  1
VBA_PROJECT
  2
AcDbVbaProject
  3
"acadvba"
 90
        1
280
         0
281
         0
  0
CLASS
  1
WIPEOUT
  2
AcDbWipeout
  3
WipeOut|AutoCAD Express Tool|expresstools@autodesk.com
 90
      127
280
         0
281
         1
  0
CLASS
  1
WIPEOUTVARIABLES
  2
AcDbWipeoutVariables
  3
WipeOut|AutoCAD Express Tool|expresstools@autodesk.com
 90
        0
280
         0
281
         0
  0
CLASS
  1
RTEXT
  2
RText
  3
RText|AutoCAD Express Tool|expresstools@autodesk.com
 90
        0
280
         0
281
         1
  0
CLASS
  1
ARCALIGNEDTEXT
  2
AcDbArcAlignedText
  3
ATEXT|AutoCAD Express Tool|expresstools@autodesk.com
 90
        0
280
         0
281
         1
  0
ENDSEC
  0
SECTION
  2
TABLES
  0
TABLE
  2
VPORT
  5
7
100
AcDbSymbolTable
 70
         1
  0
VPORT
  5
15
100
AcDbSymbolTableRecord
100
AcDbViewportTableRecord
  2
*ACTIVE
 70
         0
 10
0.0
 20
0.0
 11
1.0
 21
1.0
 12
203.574021748
 22
3.4022099983
 13
0.0
 23
0.0
 14
1.0
 24
1.0
 15
0.0
 25
0.0
 16
0.0
 26
0.0
 36
1.0
 17
0.0
 27
0.0
 37
0.0
 40
322.0139873646
 41
1.4783625731
 42
50.0
 43
0.0
 44
0.0
 50
0.0
 51
0.0
 71
         0
 72
       100
 73
         1
 74
         1
 75
         0
 76
         0
 77
         0
 78
         0
  0
ENDTAB
  0
TABLE
  2
LTYPE
  5
4
100
AcDbSymbolTable
 70
         6
  0
LTYPE
  5
11
100
AcDbSymbolTableRecord
100
AcDbLinetypeTableRecord
  2
BYBLOCK
 70
        64
  3

 72
        65
 73
         0
 40
0.0
  0
LTYPE
  5
12
100
AcDbSymbolTableRecord
100
AcDbLinetypeTableRecord
  2
BYLAYER
 70
        64
  3

 72
        65
 73
         0
 40
0.0
  0
LTYPE
  5
13
100
AcDbSymbolTableRecord
100
AcDbLinetypeTableRecord
  2
CONTINUOUS
 70
        64
  3
Solid line
 72
        65
 73
         0
 40
0.0
  0
LTYPE
  5
1D
100
AcDbSymbolTableRecord
100
AcDbLinetypeTableRecord
  2
DASHED
 70
        64
  3
_ _ _ _ _ _ _ _ _ _ _ _ _ _ _ _
 72
        65
 73
         2
 40
0.2
 49
0.1
 74
         0
 49
-0.1
 74
         0
  0
LTYPE
  5
1E
100
AcDbSymbolTableRecord
100
AcDbLinetypeTableRecord
  2
CENTER
 70
        64
  3
___ _ ___ _ ___ _ ___ _ ___ _ ___ _ ___ _ ___ _
 72
        65
 73
         4
 40
0.95
 49
0.625
 74
         0
 49
-0.125
 74
         0
 49
0.075
 74
         0
 49
-0.125
 74
         0
  0
LTYPE
  5
1F
100
AcDbSymbolTableRecord
100
AcDbLinetypeTableRecord
  2
PHANTOM
 70
        64
  3
______  __  __  ______  __  __  ______  __  __  
 72
        65
 73
         6
 40
1.025
 49
0.625
 74
         0
 49
-0.125
 74
         0
 49
0.075
 74
         0
 49
-0.125
 74
         0
 49
0.075
 74
         0
 49
-0.125
 74
         0
  0
ENDTAB
  0
TABLE
  2
LAYER
  5
2
100
AcDbSymbolTable
 70
         2
  0
LAYER
  5
14
100
AcDbSymbolTableRecord
100
AcDbLayerTableRecord
  2
0
 70
         0
 62
         7
  6
CONTINUOUS
  0
LAYER
  5
21
100
AcDbSymbolTableRecord
100
AcDbLayerTableRecord
  2
CK_LEVEL_1
 70
         0
 62
         7
  6
CONTINUOUS
  0
ENDTAB
  0
TABLE
  2
STYLE
  5
3
100
AcDbSymbolTable
 70
         1
  0
STYLE
  5
17
100
AcDbSymbolTableRecord
100
AcDbTextStyleTableRecord
  2
STANDARD
 70
         0
 40
0.0
 41
1.0
 50
0.0
 71
         0
 42
0.0
  3
txt
  4

  0
ENDTAB
  0
TABLE
  2
VIEW
  5
5
100
AcDbSymbolTable
 70
         0
  0
ENDTAB
  0
TABLE
  2
UCS
  5
6
100
AcDbSymbolTable
 70
         1
  0
UCS
  5
20
100
AcDbSymbolTableRecord
100
AcDbUCSTableRecord
  2
CK_VIEW_1
 70
         0
 10
0.0
 20
0.0
 30
1.0
 11
1.0
 21
0.0
 31
0.0
 12
0.0
 22
1.0
 32
0.0
  0
ENDTAB
  0
TABLE
  2
APPID
  5
8
100
AcDbSymbolTable
 70
         1
  0
APPID
  5
16
100
AcDbSymbolTableRecord
100
AcDbRegAppTableRecord
  2
ACAD
 70
         0
  0
ENDTAB
  0
TABLE
  2
DIMSTYLE
  5
9
100
AcDbSymbolTable
 70
         1
  0
DIMSTYLE
105
18
100
AcDbSymbolTableRecord
100
AcDbDimStyleTableRecord
  2
STANDARD
 70
         0
  3

  4

  5

  6

  7

 40
1.0
 41
0.18
 42
0.0625
 43
0.38
 44
0.18
 45
0.0
 46
0.0
 47
0.0
 48
0.0
 71
         0
 72
         0
 73
         1
 74
         1
 75
         0
 76
         0
 77
         0
 78
         0
140
0.18
141
0.09
142
0.0
143
25.4
144
1.0
145
0.0
146
1.0
147
0.09
170
         0
171
         2
172
         0
173
         0
174
         0
175
         0
176
         0
177
         0
178
         0
270
         2
271
         4
272
         4
273
         2
274
         2
275
         0
280
         0
281
         0
282
         0
283
         1
284
         0
285
         0
286
         0
287
         0
288
         0
340
17
  0
ENDTAB
  0
TABLE
  2
BLOCK_RECORD
  5
1
100
AcDbSymbolTable
 70
         3
  0
BLOCK_RECORD
  5
A
100
AcDbSymbolTableRecord
100
AcDbBlockTableRecord
  2
*MODEL_SPACE
  0
BLOCK_RECORD
  5
B
100
AcDbSymbolTableRecord
100
AcDbBlockTableRecord
  2
*PAPER_SPACE
  0
BLOCK_RECORD
  5
22
100
AcDbSymbolTableRecord
100
AcDbBlockTableRecord
  2
CKCOLL60
  0
BLOCK_RECORD
  5
2D
100
AcDbSymbolTableRecord
100
AcDbBlockTableRecord
  2
CKCOLL86
  0
BLOCK_RECORD
  5
17D
100
AcDbSymbolTableRecord
100
AcDbBlockTableRecord
  2
CKCOLL130
  0
ENDTAB
  0
ENDSEC
  0
SECTION
  2
BLOCKS
  0
BLOCK
  5
D
100
AcDbEntity
  8
0
100
AcDbBlockBegin
  2
*MODEL_SPACE
 70
         0
 10
0.0
 20
0.0
 30
0.0
  3
*MODEL_SPACE
  1

  0
ENDBLK
  5
E
100
AcDbEntity
  8
0
100
AcDbBlockEnd
  0
BLOCK
  5
F
100
AcDbEntity
 67
         1
  8
0
100
AcDbBlockBegin
  2
*PAPER_SPACE
 70
         0
 10
0.0
 20
0.0
 30
0.0
  3
*PAPER_SPACE
  1

  0
ENDBLK
  5
10
100
AcDbEntity
 67
         1
  8
0
100
AcDbBlockEnd
  0
BLOCK
  5
23
100
AcDbEntity
  8
0
100
AcDbBlockBegin
  2
CKCOLL60
 70
        64
 10
0.0
 20
0.0
 30
0.0
  3
CKCOLL60
  1

  0
CIRCLE
  5
24
100
AcDbEntity
  8
CK_LEVEL_1
  6
CONTINUOUS
 62
         3
100
AcDbCircle
 10
249.3128960166
 20
-58.4588182014
 30
0.0
 40
30.0
  0
CIRCLE
  5
25
100
AcDbEntity
  8
CK_LEVEL_1
  6
CONTINUOUS
 62
         3
100
AcDbCircle
 10
-249.3128960166
 20
-58.4588182014
 30
-4.0
 40
30.0
210
0.0
220
0.0
230
-1.0
  0
LINE
  5
26
100
AcDbEntity
  8
CK_LEVEL_1
  6
CONTINUOUS
 62
         3
100
AcDbLine
 10
249.3128960166
 20
-28.4588182014
 30
4.0
 11
249.3128960166
 21
-28.4588182014
 31
0.0
  0
LINE
  5
27
100
AcDbEntity
  8
CK_LEVEL_1
  6
CONTINUOUS
 62
         3
100
AcDbLine
 10
279.3128960166
 20
-58.4588182014
 30
4.0
 11
279.3128960166
 21
-58.4588182014
 31
0.0
  0
LINE
  5
28
100
AcDbEntity
  8
CK_LEVEL_1
  6
CONTINUOUS
 62
         3
100
AcDbLine
 10
249.3128960166
 20
-88.4588182014
 30
4.0
 11
249.3128960166
 21
-88.4588182014
 31
0.0
  0
LINE
  5
29
100
AcDbEntity
  8
CK_LEVEL_1
  6
CONTINUOUS
 62
         3
100
AcDbLine
 10
219.3128960166
 20
-58.4588182014
 30
4.0
 11
219.3128960166
 21
-58.4588182014
 31
0.0
  0
ENDBLK
  5
2A
100
AcDbEntity
  8
0
  6
CONTINUOUS
100
AcDbBlockEnd
  0
BLOCK
  5
2E
100
AcDbEntity
  8
0
100
AcDbBlockBegin
  2
CKCOLL86
 70
        64
 10
0.0
 20
0.0
 30
0.0
  3
CKCOLL86
  1

  0
POLYLINE
  5
30
100
AcDbEntity
  8
CK_LEVEL_1
  6
CONTINUOUS
 62
         3
100
AcDb2dPolyline
 66
         1
 10
0.0
 20
0.0
 30
-197.4024179252
 70
         2
210
0.1583336990665304
220
0.0
230
-0.9873856590714235
  0
VERTEX
  5
32
100
AcDbEntity
  8
CK_LEVEL_1
  6
CONTINUOUS
 62
         3
100
AcDbVertex
100
AcDb2dVertex
 10
-67.4588182014
 20
505.8187179524
 30
-197.4024179252
 70
         1
  0
VERTEX
  5
34
100
AcDbEntity
  8
CK_LEVEL_1
  6
CONTINUOUS
 62
         3
100
AcDbVertex
100
AcDb2dVertex
 10
-67.405158291
 20
504.8372744757
 30
-197.4024179252
 70
         1
  0
VERTEX
  5
36
100
AcDbEntity
  8
CK_LEVEL_1
  6
CONTINUOUS
 62
         3
100
AcDbVertex
100
AcDb2dVertex
 10
-67.3308287613
 20
504.3061107976
 30
-197.4024179252
 70
         1
  0
VERTEX
  5
38
100
AcDbEntity
  8
CK_LEVEL_1
  6
CONTINUOUS
 62
         3
100
AcDbVertex
100
AcDb2dVertex
 10
-67.2294044672
 20
503.7993616256
 30
-197.4024179252
 70
         1
  0
VERTEX
  5
3A
100
AcDbEntity
  8
CK_LEVEL_1
  6
CONTINUOUS
 62
         3
100
AcDbVertex
100
AcDb2dVertex
 10
-67.1045205392
 20
503.318050208
 30
-197.4024179252
 70
         1
  0
VERTEX
  5
3C
100
AcDbEntity
  8
CK_LEVEL_1
  6
CONTINUOUS
 62
         3
100
AcDbVertex
100
AcDb2dVertex
 10
-66.9596500184
 20
502.8627129281
 30
-197.4024179252
 70
         1
  0
VERTEX
  5
3E
100
AcDbEntity
  8
CK_LEVEL_1
  6
CONTINUOUS
 62
         3
100
AcDbVertex
100
AcDb2dVertex
 10
-66.798053763
 20
502.433468483
 30
-197.4024179252
 70
         1
  0
VERTEX
  5
40
100
AcDbEntity
  8
CK_LEVEL_1
  6
CONTINUOUS
 62
         3
100
AcDbVertex
100
AcDb2dVertex
 10
-66.622747082
 20
502.0300866905
 30
-197.4024179252
 70
         1
  0
VERTEX
  5
42
100
AcDbEntity
  8
CK_LEVEL_1
  6
CONTINUOUS
 62
         3
100
AcDbVertex
100
AcDb2dVertex
 10
-66.3709825079
 20
501.5289517681
 30
-197.4024179252
 70
         1
  0
VERTEX
  5
44
100
AcDbEntity
  8
CK_LEVEL_1
  6
CONTINUOUS
 62
         3
100
AcDbVertex
100
AcDb2dVertex
 10
-66.1053497513
 20
501.0715092849
 30
-197.4024179252
 70
         1
  0
VERTEX
  5
46
100
AcDbEntity
  8
CK_LEVEL_1
  6
CONTINUOUS
 62
         3
100
AcDbVertex
100
AcDb2dVertex
 10
-65.8308488622
 20
500.6554250807
 30
-197.4024179252
 70
         1
  0
VERTEX
  5
48
100
AcDbEntity
  8
CK_LEVEL_1
  6
CONTINUOUS
 62
         3
100
AcDbVertex
100
AcDb2dVertex
 10
-65.5516672072
 20
500.2780594663
 30
-197.4024179252
 70
         1
  0
VERTEX
  5
4A
100
AcDbEntity
  8
CK_LEVEL_1
  6
CONTINUOUS
 62
         3
100
AcDbVertex
100
AcDb2dVertex
 10
-65.2712504948
 20
499.9366171102
 30
-197.4024179252
 70
         1
  0
VERTEX
  5
4C
100
AcDbEntity
  8
CK_LEVEL_1
  6
CONTINUOUS
 62
         3
100
AcDbVertex
100
AcDb2dVertex
 10
-64.9923847521
 20
499.6282615908
 30
-197.4024179252
 70
         1
  0
VERTEX
  5
4E
100
AcDbEntity
  8
CK_LEVEL_1
  6
CONTINUOUS
 62
         3
100
AcDbVertex
100
AcDb2dVertex
 10
-64.6240666882
 20
499.2612732382
 30
-197.4024179252
 70
         1
  0
VERTEX
  5
50
100
AcDbEntity
  8
CK_LEVEL_1
  6
CONTINUOUS
 62
         3
100
AcDbVertex
100
AcDb2dVertex
 10
-64.2664753001
 20
498.9424891982
 30
-197.4024179252
 70
         1
  0
VERTEX
  5
52
100
AcDbEntity
  8
CK_LEVEL_1
  6
CONTINUOUS
 62
         3
100
AcDbVertex
100
AcDb2dVertex
 10
-63.9223345334
 20
498.6659333326
 30
-197.4024179252
 70
         1
  0
VERTEX
  5
54
100
AcDbEntity
  8
CK_LEVEL_1
  6
CONTINUOUS
 62
         3
100
AcDbVertex
100
AcDb2dVertex
 10
-63.5933782623
 20
498.4261898001
 30
-197.4024179252
 70
         1
  0
VERTEX
  5
56
100
AcDbEntity
  8
CK_LEVEL_1
  6
CONTINUOUS
 62
         3
100
AcDbVertex
100
AcDb2dVertex
 10
-63.1760233594
 20
498.1530707632
 30
-197.4024179252
 70
         1
  0
VERTEX
  5
58
100
AcDbEntity
  8
CK_LEVEL_1
  6
CONTINUOUS
 62
         3
100
AcDbVertex
100
AcDb2dVertex
 10
-62.7887749272
 20
497.9278060147
 30
-197.4024179252
 70
         1
  0
VERTEX
  5
5A
100
AcDbEntity
  8
CK_LEVEL_1
  6
CONTINUOUS
 62
         3
100
AcDbVertex
100
AcDb2dVertex
 10
-62.4312762567
 20
497.7418801165
 30
-197.4024179252
 70
         1
  0
VERTEX
  5
5C
100
AcDbEntity
  8
CK_LEVEL_1
  6
CONTINUOUS
 62
         3
100
AcDbVertex
100
AcDb2dVertex
 10
-61.9933494885
 20
497.540818821
 30
-197.4024179252
 70
         1
  0
VERTEX
  5
5E
100
AcDbEntity
  8
CK_LEVEL_1
  6
CONTINUOUS
 62
         3
100
AcDbVertex
100
AcDb2dVertex
 10
-61.6037560721
 20
497.3850640013
 30
-197.4024179252
 70
         1
  0
VERTEX
  5
60
100
AcDbEntity
  8
CK_LEVEL_1
  6
CONTINUOUS
 62
         3
100
AcDbVertex
100
AcDb2dVertex
 10
-61.1439163644
 20
497.2275569295
 30
-197.4024179252
 70
         1
  0
VERTEX
  5
62
100
AcDbEntity
  8
CK_LEVEL_1
  6
CONTINUOUS
 62
         3
100
AcDbVertex
100
AcDb2dVertex
 10
-60.753607641
 20
497.1151433904
 30
-197.4024179252
 70
         1
  0
VERTEX
  5
64
100
AcDbEntity
  8
CK_LEVEL_1
  6
CONTINUOUS
 62
         3
100
AcDbVertex
100
AcDb2dVertex
 10
-60.3135078871
 20
497.0108331089
 30
-197.4024179252
 70
         1
  0
VERTEX
  5
66
100
AcDbEntity
  8
CK_LEVEL_1
  6
CONTINUOUS
 62
         3
100
AcDbVertex
100
AcDb2dVertex
 10
-59.8459008487
 20
496.9251766646
 30
-197.4024179252
 70
         1
  0
VERTEX
  5
68
100
AcDbEntity
  8
CK_LEVEL_1
  6
CONTINUOUS
 62
         3
100
AcDbVertex
100
AcDb2dVertex
 10
-59.3873954644
 20
496.8656695726
 30
-197.4024179252
 70
         1
  0
VERTEX
  5
6A
100
AcDbEntity
  8
CK_LEVEL_1
  6
CONTINUOUS
 62
         3
100
AcDbVertex
100
AcDb2dVertex
 10
-58.985142325
 20
496.833037393
 30
-197.4024179252
 70
         1
  0
VERTEX
  5
6C
100
AcDbEntity
  8
CK_LEVEL_1
  6
CONTINUOUS
 62
         3
100
AcDbVertex
100
AcDb2dVertex
 10
-58.5876768634
 20
496.8185551505
 30
-197.4024179252
 70
         1
  0
VERTEX
  5
6E
100
AcDbEntity
  8
CK_LEVEL_1
  6
CONTINUOUS
 62
         3
100
AcDbVertex
100
AcDb2dVertex
 10
-58.4588182014
 20
496.8176325167
 30
-197.4024179252
 70
         1
  0
VERTEX
  5
70
100
AcDbEntity
  8
CK_LEVEL_1
  6
CONTINUOUS
 62
         3
100
AcDbVertex
100
AcDb2dVertex
 10
-58.4588182014
 20
496.8176325167
 30
-197.4024179252
 70
         1
  0
VERTEX
  5
72
100
AcDbEntity
  8
CK_LEVEL_1
  6
CONTINUOUS
 62
         3
100
AcDbVertex
100
AcDb2dVertex
 10
-57.6839875131
 20
496.8510520574
 30
-197.4024179252
 70
         1
  0
VERTEX
  5
74
100
AcDbEntity
  8
CK_LEVEL_1
  6
CONTINUOUS
 62
         3
100
AcDbVertex
100
AcDb2dVertex
 10
-57.3001535568
 20
496.8925367185
 30
-197.4024179252
 70
         1
  0
VERTEX
  5
76
100
AcDbEntity
  8
CK_LEVEL_1
  6
CONTINUOUS
 62
         3
100
AcDbVertex
100
AcDb2dVertex
 10
-56.9205582291
 20
496.9500808256
 30
-197.4024179252
 70
         1
  0
VERTEX
  5
78
100
AcDbEntity
  8
CK_LEVEL_1
  6
CONTINUOUS
 62
         3
100
AcDbVertex
100
AcDb2dVertex
 10
-56.5465179761
 20
497.0231642607
 30
-197.4024179252
 70
         1
  0
VERTEX
  5
7A
100
AcDbEntity
  8
CK_LEVEL_1
  6
CONTINUOUS
 62
         3
100
AcDbVertex
100
AcDb2dVertex
 10
-56.179270412
 20
497.1111380692
 30
-197.4024179252
 70
         1
  0
VERTEX
  5
7C
100
AcDbEntity
  8
CK_LEVEL_1
  6
CONTINUOUS
 62
         3
100
AcDbVertex
100
AcDb2dVertex
 10
-55.698677503
 20
497.2513773719
 30
-197.4024179252
 70
         1
  0
VERTEX
  5
7E
100
AcDbEntity
  8
CK_LEVEL_1
  6
CONTINUOUS
 62
         3
100
AcDbVertex
100
AcDb2dVertex
 10
-55.2348534907
 20
497.4149638323
 30
-197.4024179252
 70
         1
  0
VERTEX
  5
80
100
AcDbEntity
  8
CK_LEVEL_1
  6
CONTINUOUS
 62
         3
100
AcDbVertex
100
AcDb2dVertex
 10
-54.7898775993
 20
497.5995229338
 30
-197.4024179252
 70
         1
  0
VERTEX
  5
82
100
AcDbEntity
  8
CK_LEVEL_1
  6
CONTINUOUS
 62
         3
100
AcDbVertex
100
AcDb2dVertex
 10
-54.3654220932
 20
497.802509034
 30
-197.4024179252
 70
         1
  0
VERTEX
  5
84
100
AcDbEntity
  8
CK_LEVEL_1
  6
CONTINUOUS
 62
         3
100
AcDbVertex
100
AcDb2dVertex
 10
-53.9627470614
 20
498.0212820216
 30
-197.4024179252
 70
         1
  0
VERTEX
  5
86
100
AcDbEntity
  8
CK_LEVEL_1
  6
CONTINUOUS
 62
         3
100
AcDbVertex
100
AcDb2dVertex
 10
-53.5827103668
 20
498.2531792408
 30
-197.4024179252
 70
         1
  0
VERTEX
  5
88
100
AcDbEntity
  8
CK_LEVEL_1
  6
CONTINUOUS
 62
         3
100
AcDbVertex
100
AcDb2dVertex
 10
-53.2257903174
 20
498.4955797993
 30
-197.4024179252
 70
         1
  0
VERTEX
  5
8A
100
AcDbEntity
  8
CK_LEVEL_1
  6
CONTINUOUS
 62
         3
100
AcDbVertex
100
AcDb2dVertex
 10
-52.8921181936
 20
498.7459592964
 30
-197.4024179252
 70
         1
  0
VERTEX
  5
8C
100
AcDbEntity
  8
CK_LEVEL_1
  6
CONTINUOUS
 62
         3
100
AcDbVertex
100
AcDb2dVertex
 10
-52.4791618951
 20
499.0915622193
 30
-197.4024179252
 70
         1
  0
VERTEX
  5
8E
100
AcDbEntity
  8
CK_LEVEL_1
  6
CONTINUOUS
 62
         3
100
AcDbVertex
100
AcDb2dVertex
 10
-52.1068464779
 20
499.442021197
 30
-197.4024179252
 70
         1
  0
VERTEX
  5
90
100
AcDbEntity
  8
CK_LEVEL_1
  6
CONTINUOUS
 62
         3
100
AcDbVertex
100
AcDb2dVertex
 10
-51.7733348208
 20
499.7926853119
 30
-197.4024179252
 70
         1
  0
VERTEX
  5
92
100
AcDbEntity
  8
CK_LEVEL_1
  6
CONTINUOUS
 62
         3
100
AcDbVertex
100
AcDb2dVertex
 10
-51.4763079164
 20
500.1396046211
 30
-197.4024179252
 70
         1
  0
VERTEX
  5
94
100
AcDbEntity
  8
CK_LEVEL_1
  6
CONTINUOUS
 62
         3
100
AcDbVertex
100
AcDb2dVertex
 10
-51.2131358566
 20
500.4795267945
 30
-197.4024179252
 70
         1
  0
VERTEX
  5
96
100
AcDbEntity
  8
CK_LEVEL_1
  6
CONTINUOUS
 62
         3
100
AcDbVertex
100
AcDb2dVertex
 10
-50.9062916559
 20
500.9232994502
 30
-197.4024179252
 70
         1
  0
VERTEX
  5
98
100
AcDbEntity
  8
CK_LEVEL_1
  6
CONTINUOUS
 62
         3
100
AcDbVertex
100
AcDb2dVertex
 10
-50.6491844483
 20
501.3449670192
 30
-197.4024179252
 70
         1
  0
VERTEX
  5
9A
100
AcDbEntity
  8
CK_LEVEL_1
  6
CONTINUOUS
 62
         3
100
AcDbVertex
100
AcDb2dVertex
 10
-50.4350524194
 20
501.7415631116
 30
-197.4024179252
 70
         1
  0
VERTEX
  5
9C
100
AcDbEntity
  8
CK_LEVEL_1
  6
CONTINUOUS
 62
         3
100
AcDbVertex
100
AcDb2dVertex
 10
-50.2018643941
 20
502.2374043735
 30
-197.4024179252
 70
         1
  0
VERTEX
  5
9E
100
AcDbEntity
  8
CK_LEVEL_1
  6
CONTINUOUS
 62
         3
100
AcDbVertex
100
AcDb2dVertex
 10
-50.0225323597
 20
502.683203291
 30
-197.4024179252
 70
         1
  0
VERTEX
  5
A0
100
AcDbEntity
  8
CK_LEVEL_1
  6
CONTINUOUS
 62
         3
100
AcDbVertex
100
AcDb2dVertex
 10
-49.8436388515
 20
503.2148132039
 30
-197.4024179252
 70
         1
  0
VERTEX
  5
A2
100
AcDbEntity
  8
CK_LEVEL_1
  6
CONTINUOUS
 62
         3
100
AcDbVertex
100
AcDb2dVertex
 10
-49.7206642689
 20
503.6633093488
 30
-197.4024179252
 70
         1
  0
VERTEX
  5
A4
100
AcDbEntity
  8
CK_LEVEL_1
  6
CONTINUOUS
 62
         3
100
AcDbVertex
100
AcDb2dVertex
 10
-49.6120676583
 20
504.1647334988
 30
-197.4024179252
 70
         1
  0
VERTEX
  5
A6
100
AcDbEntity
  8
CK_LEVEL_1
  6
CONTINUOUS
 62
         3
100
AcDbVertex
100
AcDb2dVertex
 10
-49.5307580069
 20
504.6829132694
 30
-197.4024179252
 70
         1
  0
VERTEX
  5
A8
100
AcDbEntity
  8
CK_LEVEL_1
  6
CONTINUOUS
 62
         3
100
AcDbVertex
100
AcDb2dVertex
 10
-49.4829266851
 20
505.1603289895
 30
-197.4024179252
 70
         1
  0
VERTEX
  5
AA
100
AcDbEntity
  8
CK_LEVEL_1
  6
CONTINUOUS
 62
         3
100
AcDbVertex
100
AcDb2dVertex
 10
-49.460326876
 20
505.6539137753
 30
-197.4024179252
 70
         1
  0
VERTEX
  5
AC
100
AcDbEntity
  8
CK_LEVEL_1
  6
CONTINUOUS
 62
         3
100
AcDbVertex
100
AcDb2dVertex
 10
-49.4588182014
 20
505.8187179524
 30
-197.4024179252
 70
         1
  0
SEQEND
  5
AE
100
AcDbEntity
  8
CK_LEVEL_1
  6
CONTINUOUS
 62
         3
  0
ARC
  5
AF
100
AcDbEntity
  8
CK_LEVEL_1
  6
CONTINUOUS
 62
         3
100
AcDbCircle
 10
58.4588182014
 20
502.6921674356
 30
205.2337078372
 40
9.0
210
-0.1429810337258753
220
0.0
230
0.9897254285884951
100
AcDbArc
 50
180.0
 51
360.0
  0
CIRCLE
  5
B0
100
AcDbEntity
  8
CK_LEVEL_1
  6
CONTINUOUS
 62
         3
100
AcDbCircle
 10
58.4588182014
 20
508.8232756903
 30
175.6655717953
 40
9.0
210
-0.1736481776670202
220
0.0
230
0.9848077530121924
  0
POLYLINE
  5
B2
100
AcDbEntity
  8
CK_LEVEL_1
  6
CONTINUOUS
 62
         3
100
AcDb3dPolyline
 66
         1
 10
0.0
 20
0.0
 30
275.0004651958
 70
         8
  0
VERTEX
  5
B4
100
AcDbEntity
  8
CK_LEVEL_1
  6
CONTINUOUS
 62
         3
100
AcDbVertex
100
AcDb3dPolylineVertex
 10
468.1826931614
 20
-67.4588182014
 30
275.0004651958
 70
        32
  0
VERTEX
  5
B6
100
AcDbEntity
  8
CK_LEVEL_1
  6
CONTINUOUS
 62
         3
100
AcDbVertex
100
AcDb3dPolylineVertex
 10
468.2198609879
 20
-67.4587394994
 30
275.0064253487
 70
        32
  0
VERTEX
  5
B8
100
AcDbEntity
  8
CK_LEVEL_1
  6
CONTINUOUS
 62
         3
100
AcDbVertex
100
AcDb3dPolylineVertex
 10
468.2570275805
 20
-67.4585033997
 30
275.012385405
 70
        32
  0
VERTEX
  5
BA
100
AcDbEntity
  8
CK_LEVEL_1
  6
CONTINUOUS
 62
         3
100
AcDbVertex
100
AcDb3dPolylineVertex
 10
468.2941924518
 20
-67.4581099116
 30
275.0183452864
 70
        32
  0
VERTEX
  5
BC
100
AcDbEntity
  8
CK_LEVEL_1
  6
CONTINUOUS
 62
         3
100
AcDbVertex
100
AcDb3dPolylineVertex
 10
468.3313551144
 20
-67.4575590441
 30
275.0243049147
 70
        32
  0
VERTEX
  5
BE
100
AcDbEntity
  8
CK_LEVEL_1
  6
CONTINUOUS
 62
         3
100
AcDbVertex
100
AcDb3dPolylineVertex
 10
468.3685150809
 20
-67.4568508068
 30
275.0302642117
 70
        32
  0
VERTEX
  5
C0
100
AcDbEntity
  8
CK_LEVEL_1
  6
CONTINUOUS
 62
         3
100
AcDbVertex
100
AcDb3dPolylineVertex
 10
468.4056718638
 20
-67.4559852087
 30
275.0362230992
 70
        32
  0
VERTEX
  5
C2
100
AcDbEntity
  8
CK_LEVEL_1
  6
CONTINUOUS
 62
         3
100
AcDbVertex
100
AcDb3dPolylineVertex
 10
468.4428249758
 20
-67.4549622592
 30
275.0421814988
 70
        32
  0
VERTEX
  5
C4
100
AcDbEntity
  8
CK_LEVEL_1
  6
CONTINUOUS
 62
         3
100
AcDbVertex
100
AcDb3dPolylineVertex
 10
468.4799739293
 20
-67.4537819675
 30
275.0481393323
 70
        32
  0
VERTEX
  5
C6
100
AcDbEntity
  8
CK_LEVEL_1
  6
CONTINUOUS
 62
         3
100
AcDbVertex
100
AcDb3dPolylineVertex
 10
468.5171182371
 20
-67.4524443429
 30
275.0540965216
 70
        32
  0
VERTEX
  5
C8
100
AcDbEntity
  8
CK_LEVEL_1
  6
CONTINUOUS
 62
         3
100
AcDbVertex
100
AcDb3dPolylineVertex
 10
468.8777340666
 20
-67.4312542332
 30
275.1119372776
 70
        32
  0
VERTEX
  5
CA
100
AcDbEntity
  8
CK_LEVEL_1
  6
CONTINUOUS
 62
         3
100
AcDbVertex
100
AcDb3dPolylineVertex
 10
469.2366862504
 20
-67.3953039093
 30
275.1695206852
 70
        32
  0
VERTEX
  5
CC
100
AcDbEntity
  8
CK_LEVEL_1
  6
CONTINUOUS
 62
         3
100
AcDbVertex
100
AcDb3dPolylineVertex
 10
469.5935395872
 20
-67.3446919255
 30
275.226776617
 70
        32
  0
VERTEX
  5
CE
100
AcDbEntity
  8
CK_LEVEL_1
  6
CONTINUOUS
 62
         3
100
AcDbVertex
100
AcDb3dPolylineVertex
 10
469.9478588753
 20
-67.279516836
 30
275.2836349455
 70
        32
  0
VERTEX
  5
D0
100
AcDbEntity
  8
CK_LEVEL_1
  6
CONTINUOUS
 62
         3
100
AcDbVertex
100
AcDb3dPolylineVertex
 10
470.2992089134
 20
-67.1998771948
 30
275.3400255433
 70
        32
  0
VERTEX
  5
D2
100
AcDbEntity
  8
CK_LEVEL_1
  6
CONTINUOUS
 62
         3
100
AcDbVertex
100
AcDb3dPolylineVertex
 10
470.6471544999
 20
-67.1058715561
 30
275.3958782829
 70
        32
  0
VERTEX
  5
D4
100
AcDbEntity
  8
CK_LEVEL_1
  6
CONTINUOUS
 62
         3
100
AcDbVertex
100
AcDb3dPolylineVertex
 10
470.9912604334
 20
-66.9975984741
 30
275.4511230368
 70
        32
  0
VERTEX
  5
D6
100
AcDbEntity
  8
CK_LEVEL_1
  6
CONTINUOUS
 62
         3
100
AcDbVertex
100
AcDb3dPolylineVertex
 10
471.3310915123
 20
-66.8751565029
 30
275.5056896777
 70
        32
  0
VERTEX
  5
D8
100
AcDbEntity
  8
CK_LEVEL_1
  6
CONTINUOUS
 62
         3
100
AcDbVertex
100
AcDb3dPolylineVertex
 10
471.6662125353
 20
-66.7386441968
 30
275.559508078
 70
        32
  0
VERTEX
  5
DA
100
AcDbEntity
  8
CK_LEVEL_1
  6
CONTINUOUS
 62
         3
100
AcDbVertex
100
AcDb3dPolylineVertex
 10
472.0172819013
 20
-66.5779772823
 30
275.615896262
 70
        32
  0
VERTEX
  5
DC
100
AcDbEntity
  8
CK_LEVEL_1
  6
CONTINUOUS
 62
         3
100
AcDbVertex
100
AcDb3dPolylineVertex
 10
472.3605908544
 20
-66.4023505371
 30
275.6710463261
 70
        32
  0
VERTEX
  5
DE
100
AcDbEntity
  8
CK_LEVEL_1
  6
CONTINUOUS
 62
         3
100
AcDbVertex
100
AcDb3dPolylineVertex
 10
472.6956922038
 20
-66.2120718864
 30
275.7248857699
 70
        32
  0
VERTEX
  5
E0
100
AcDbEntity
  8
CK_LEVEL_1
  6
CONTINUOUS
 62
         3
100
AcDbVertex
100
AcDb3dPolylineVertex
 10
473.0221387588
 20
-66.0074492555
 30
275.7773420933
 70
        32
  0
VERTEX
  5
E2
100
AcDbEntity
  8
CK_LEVEL_1
  6
CONTINUOUS
 62
         3
100
AcDbVertex
100
AcDb3dPolylineVertex
 10
473.3394833286
 20
-65.7887905695
 30
275.828342796
 70
        32
  0
VERTEX
  5
E4
100
AcDbEntity
  8
CK_LEVEL_1
  6
CONTINUOUS
 62
         3
100
AcDbVertex
100
AcDb3dPolylineVertex
 10
473.6472787223
 20
-65.5564037535
 30
275.8778153778
 70
        32
  0
VERTEX
  5
E6
100
AcDbEntity
  8
CK_LEVEL_1
  6
CONTINUOUS
 62
         3
100
AcDbVertex
100
AcDb3dPolylineVertex
 10
473.9450777493
 20
-65.3105967328
 30
275.9256873384
 70
        32
  0
VERTEX
  5
E8
100
AcDbEntity
  8
CK_LEVEL_1
  6
CONTINUOUS
 62
         3
100
AcDbVertex
100
AcDb3dPolylineVertex
 10
474.2324332187
 20
-65.0516774326
 30
275.9718861776
 70
        32
  0
VERTEX
  5
EA
100
AcDbEntity
  8
CK_LEVEL_1
  6
CONTINUOUS
 62
         3
100
AcDbVertex
100
AcDb3dPolylineVertex
 10
474.5088979397
 20
-64.779953778
 30
276.0163393952
 70
        32
  0
VERTEX
  5
EC
100
AcDbEntity
  8
CK_LEVEL_1
  6
CONTINUOUS
 62
         3
100
AcDbVertex
100
AcDb3dPolylineVertex
 10
474.7734568013
 20
-64.4963685167
 30
276.0588830452
 70
        32
  0
VERTEX
  5
EE
100
AcDbEntity
  8
CK_LEVEL_1
  6
CONTINUOUS
 62
         3
100
AcDbVertex
100
AcDb3dPolylineVertex
 10
475.0252304694
 20
-64.2019261838
 30
276.0993750037
 70
        32
  0
VERTEX
  5
F0
100
AcDbEntity
  8
CK_LEVEL_1
  6
CONTINUOUS
 62
         3
100
AcDbVertex
100
AcDb3dPolylineVertex
 10
475.2639206761
 20
-63.897083574
 30
276.1377667004
 70
        32
  0
VERTEX
  5
F2
100
AcDbEntity
  8
CK_LEVEL_1
  6
CONTINUOUS
 62
         3
100
AcDbVertex
100
AcDb3dPolylineVertex
 10
475.4892291538
 20
-63.5822974819
 30
276.1740095651
 70
        32
  0
VERTEX
  5
F4
100
AcDbEntity
  8
CK_LEVEL_1
  6
CONTINUOUS
 62
         3
100
AcDbVertex
100
AcDb3dPolylineVertex
 10
475.7008576345
 20
-63.2580247023
 30
276.2080550276
 70
        32
  0
VERTEX
  5
F6
100
AcDbEntity
  8
CK_LEVEL_1
  6
CONTINUOUS
 62
         3
100
AcDbVertex
100
AcDb3dPolylineVertex
 10
475.8985078505
 20
-62.9247220299
 30
276.2398545177
 70
        32
  0
VERTEX
  5
F8
100
AcDbEntity
  8
CK_LEVEL_1
  6
CONTINUOUS
 62
         3
100
AcDbVertex
100
AcDb3dPolylineVertex
 10
476.0818815339
 20
-62.5828462593
 30
276.2693594651
 70
        32
  0
VERTEX
  5
FA
100
AcDbEntity
  8
CK_LEVEL_1
  6
CONTINUOUS
 62
         3
100
AcDbVertex
100
AcDb3dPolylineVertex
 10
476.250680417
 20
-62.2328541855
 30
276.2965212996
 70
        32
  0
VERTEX
  5
FC
100
AcDbEntity
  8
CK_LEVEL_1
  6
CONTINUOUS
 62
         3
100
AcDbVertex
100
AcDb3dPolylineVertex
 10
476.4046062319
 20
-61.8752026029
 30
276.321291451
 70
        32
  0
VERTEX
  5
FE
100
AcDbEntity
  8
CK_LEVEL_1
  6
CONTINUOUS
 62
         3
100
AcDbVertex
100
AcDb3dPolylineVertex
 10
476.5430894021
 20
-61.5111084534
 30
276.3435776664
 70
        32
  0
VERTEX
  5
100
100
AcDbEntity
  8
CK_LEVEL_1
  6
CONTINUOUS
 62
         3
100
AcDbVertex
100
AcDb3dPolylineVertex
 10
476.6656725119
 20
-61.1418841584
 30
276.3633059641
 70
        32
  0
VERTEX
  5
102
100
AcDbEntity
  8
CK_LEVEL_1
  6
CONTINUOUS
 62
         3
100
AcDbVertex
100
AcDb3dPolylineVertex
 10
476.7722508706
 20
-60.7680671962
 30
276.3804592578
 70
        32
  0
VERTEX
  5
104
100
AcDbEntity
  8
CK_LEVEL_1
  6
CONTINUOUS
 62
         3
100
AcDbVertex
100
AcDb3dPolylineVertex
 10
476.8627197873
 20
-60.3901950452
 30
276.395020461
 70
        32
  0
VERTEX
  5
106
100
AcDbEntity
  8
CK_LEVEL_1
  6
CONTINUOUS
 62
         3
100
AcDbVertex
100
AcDb3dPolylineVertex
 10
476.9369745712
 20
-60.0088051838
 30
276.4069724875
 70
        32
  0
VERTEX
  5
108
100
AcDbEntity
  8
CK_LEVEL_1
  6
CONTINUOUS
 62
         3
100
AcDbVertex
100
AcDb3dPolylineVertex
 10
476.9949105316
 20
-59.6244350904
 30
276.4162982511
 70
        32
  0
VERTEX
  5
10A
100
AcDbEntity
  8
CK_LEVEL_1
  6
CONTINUOUS
 62
         3
100
AcDbVertex
100
AcDb3dPolylineVertex
 10
477.0364229776
 20
-59.2376222432
 30
276.4229806652
 70
        32
  0
VERTEX
  5
10C
100
AcDbEntity
  8
CK_LEVEL_1
  6
CONTINUOUS
 62
         3
100
AcDbVertex
100
AcDb3dPolylineVertex
 10
477.0614072184
 20
-58.8489041208
 30
276.4270026437
 70
        32
  0
VERTEX
  5
10E
100
AcDbEntity
  8
CK_LEVEL_1
  6
CONTINUOUS
 62
         3
100
AcDbVertex
100
AcDb3dPolylineVertex
 10
477.0697585633
 20
-58.4588182014
 30
276.4283471001
 70
        32
  0
VERTEX
  5
110
100
AcDbEntity
  8
CK_LEVEL_1
  6
CONTINUOUS
 62
         3
100
AcDbVertex
100
AcDb3dPolylineVertex
 10
477.0614072184
 20
-58.068732282
 30
276.4270026437
 70
        32
  0
VERTEX
  5
112
100
AcDbEntity
  8
CK_LEVEL_1
  6
CONTINUOUS
 62
         3
100
AcDbVertex
100
AcDb3dPolylineVertex
 10
477.0364229776
 20
-57.6800141596
 30
276.4229806652
 70
        32
  0
VERTEX
  5
114
100
AcDbEntity
  8
CK_LEVEL_1
  6
CONTINUOUS
 62
         3
100
AcDbVertex
100
AcDb3dPolylineVertex
 10
476.9949105316
 20
-57.2932013125
 30
276.4162982511
 70
        32
  0
VERTEX
  5
116
100
AcDbEntity
  8
CK_LEVEL_1
  6
CONTINUOUS
 62
         3
100
AcDbVertex
100
AcDb3dPolylineVertex
 10
476.9369745712
 20
-56.908831219
 30
276.4069724875
 70
        32
  0
VERTEX
  5
118
100
AcDbEntity
  8
CK_LEVEL_1
  6
CONTINUOUS
 62
         3
100
AcDbVertex
100
AcDb3dPolylineVertex
 10
476.8627197873
 20
-56.5274413576
 30
276.395020461
 70
        32
  0
VERTEX
  5
11A
100
AcDbEntity
  8
CK_LEVEL_1
  6
CONTINUOUS
 62
         3
100
AcDbVertex
100
AcDb3dPolylineVertex
 10
476.7722508706
 20
-56.1495692066
 30
276.3804592578
 70
        32
  0
VERTEX
  5
11C
100
AcDbEntity
  8
CK_LEVEL_1
  6
CONTINUOUS
 62
         3
100
AcDbVertex
100
AcDb3dPolylineVertex
 10
476.6656725119
 20
-55.7757522444
 30
276.3633059641
 70
        32
  0
VERTEX
  5
11E
100
AcDbEntity
  8
CK_LEVEL_1
  6
CONTINUOUS
 62
         3
100
AcDbVertex
100
AcDb3dPolylineVertex
 10
476.5430894021
 20
-55.4065279494
 30
276.3435776664
 70
        32
  0
VERTEX
  5
120
100
AcDbEntity
  8
CK_LEVEL_1
  6
CONTINUOUS
 62
         3
100
AcDbVertex
100
AcDb3dPolylineVertex
 10
476.4046062319
 20
-55.0424337999
 30
276.321291451
 70
        32
  0
VERTEX
  5
122
100
AcDbEntity
  8
CK_LEVEL_1
  6
CONTINUOUS
 62
         3
100
AcDbVertex
100
AcDb3dPolylineVertex
 10
476.250680417
 20
-54.6847822174
 30
276.2965212996
 70
        32
  0
VERTEX
  5
124
100
AcDbEntity
  8
CK_LEVEL_1
  6
CONTINUOUS
 62
         3
100
AcDbVertex
100
AcDb3dPolylineVertex
 10
476.0818815339
 20
-54.3347901435
 30
276.2693594651
 70
        32
  0
VERTEX
  5
126
100
AcDbEntity
  8
CK_LEVEL_1
  6
CONTINUOUS
 62
         3
100
AcDbVertex
100
AcDb3dPolylineVertex
 10
475.8985078505
 20
-53.992914373
 30
276.2398545177
 70
        32
  0
VERTEX
  5
128
100
AcDbEntity
  8
CK_LEVEL_1
  6
CONTINUOUS
 62
         3
100
AcDbVertex
100
AcDb3dPolylineVertex
 10
475.7008576345
 20
-53.6596117006
 30
276.2080550276
 70
        32
  0
VERTEX
  5
12A
100
AcDbEntity
  8
CK_LEVEL_1
  6
CONTINUOUS
 62
         3
100
AcDbVertex
100
AcDb3dPolylineVertex
 10
475.4892291538
 20
-53.3353389209
 30
276.1740095651
 70
        32
  0
VERTEX
  5
12C
100
AcDbEntity
  8
CK_LEVEL_1
  6
CONTINUOUS
 62
         3
100
AcDbVertex
100
AcDb3dPolylineVertex
 10
475.2639206761
 20
-53.0205528289
 30
276.1377667004
 70
        32
  0
VERTEX
  5
12E
100
AcDbEntity
  8
CK_LEVEL_1
  6
CONTINUOUS
 62
         3
100
AcDbVertex
100
AcDb3dPolylineVertex
 10
475.0252304694
 20
-52.715710219
 30
276.0993750037
 70
        32
  0
VERTEX
  5
130
100
AcDbEntity
  8
CK_LEVEL_1
  6
CONTINUOUS
 62
         3
100
AcDbVertex
100
AcDb3dPolylineVertex
 10
474.7734568013
 20
-52.4212678861
 30
276.0588830452
 70
        32
  0
VERTEX
  5
132
100
AcDbEntity
  8
CK_LEVEL_1
  6
CONTINUOUS
 62
         3
100
AcDbVertex
100
AcDb3dPolylineVertex
 10
474.5088979397
 20
-52.1376826248
 30
276.0163393952
 70
        32
  0
VERTEX
  5
134
100
AcDbEntity
  8
CK_LEVEL_1
  6
CONTINUOUS
 62
         3
100
AcDbVertex
100
AcDb3dPolylineVertex
 10
474.2324332187
 20
-51.8659589702
 30
275.9718861776
 70
        32
  0
VERTEX
  5
136
100
AcDbEntity
  8
CK_LEVEL_1
  6
CONTINUOUS
 62
         3
100
AcDbVertex
100
AcDb3dPolylineVertex
 10
473.9450777493
 20
-51.60703967
 30
275.9256873384
 70
        32
  0
VERTEX
  5
138
100
AcDbEntity
  8
CK_LEVEL_1
  6
CONTINUOUS
 62
         3
100
AcDbVertex
100
AcDb3dPolylineVertex
 10
473.6472787223
 20
-51.3612326493
 30
275.8778153778
 70
        32
  0
VERTEX
  5
13A
100
AcDbEntity
  8
CK_LEVEL_1
  6
CONTINUOUS
 62
         3
100
AcDbVertex
100
AcDb3dPolylineVertex
 10
473.3394833286
 20
-51.1288458334
 30
275.828342796
 70
        32
  0
VERTEX
  5
13C
100
AcDbEntity
  8
CK_LEVEL_1
  6
CONTINUOUS
 62
         3
100
AcDbVertex
100
AcDb3dPolylineVertex
 10
473.0221387588
 20
-50.9101871473
 30
275.7773420933
 70
        32
  0
VERTEX
  5
13E
100
AcDbEntity
  8
CK_LEVEL_1
  6
CONTINUOUS
 62
         3
100
AcDbVertex
100
AcDb3dPolylineVertex
 10
472.6956922038
 20
-50.7055645164
 30
275.7248857699
 70
        32
  0
VERTEX
  5
140
100
AcDbEntity
  8
CK_LEVEL_1
  6
CONTINUOUS
 62
         3
100
AcDbVertex
100
AcDb3dPolylineVertex
 10
472.3605908544
 20
-50.5152858657
 30
275.6710463261
 70
        32
  0
VERTEX
  5
142
100
AcDbEntity
  8
CK_LEVEL_1
  6
CONTINUOUS
 62
         3
100
AcDbVertex
100
AcDb3dPolylineVertex
 10
472.0172819013
 20
-50.3396591205
 30
275.615896262
 70
        32
  0
VERTEX
  5
144
100
AcDbEntity
  8
CK_LEVEL_1
  6
CONTINUOUS
 62
         3
100
AcDbVertex
100
AcDb3dPolylineVertex
 10
471.6662125352
 20
-50.178992206
 30
275.559508078
 70
        32
  0
VERTEX
  5
146
100
AcDbEntity
  8
CK_LEVEL_1
  6
CONTINUOUS
 62
         3
100
AcDbVertex
100
AcDb3dPolylineVertex
 10
471.3310915123
 20
-50.0424798999
 30
275.5056896777
 70
        32
  0
VERTEX
  5
148
100
AcDbEntity
  8
CK_LEVEL_1
  6
CONTINUOUS
 62
         3
100
AcDbVertex
100
AcDb3dPolylineVertex
 10
470.9912604334
 20
-49.9200379287
 30
275.4511230368
 70
        32
  0
VERTEX
  5
14A
100
AcDbEntity
  8
CK_LEVEL_1
  6
CONTINUOUS
 62
         3
100
AcDbVertex
100
AcDb3dPolylineVertex
 10
470.6471544999
 20
-49.8117648467
 30
275.3958782829
 70
        32
  0
VERTEX
  5
14C
100
AcDbEntity
  8
CK_LEVEL_1
  6
CONTINUOUS
 62
         3
100
AcDbVertex
100
AcDb3dPolylineVertex
 10
470.2992089134
 20
-49.7177592081
 30
275.3400255433
 70
        32
  0
VERTEX
  5
14E
100
AcDbEntity
  8
CK_LEVEL_1
  6
CONTINUOUS
 62
         3
100
AcDbVertex
100
AcDb3dPolylineVertex
 10
469.9478588753
 20
-49.6381195668
 30
275.2836349455
 70
        32
  0
VERTEX
  5
150
100
AcDbEntity
  8
CK_LEVEL_1
  6
CONTINUOUS
 62
         3
100
AcDbVertex
100
AcDb3dPolylineVertex
 10
469.5935395872
 20
-49.5729444773
 30
275.226776617
 70
        32
  0
VERTEX
  5
152
100
AcDbEntity
  8
CK_LEVEL_1
  6
CONTINUOUS
 62
         3
100
AcDbVertex
100
AcDb3dPolylineVertex
 10
469.2366862504
 20
-49.5223324935
 30
275.1695206852
 70
        32
  0
VERTEX
  5
154
100
AcDbEntity
  8
CK_LEVEL_1
  6
CONTINUOUS
 62
         3
100
AcDbVertex
100
AcDb3dPolylineVertex
 10
468.8777340666
 20
-49.4863821697
 30
275.1119372776
 70
        32
  0
VERTEX
  5
156
100
AcDbEntity
  8
CK_LEVEL_1
  6
CONTINUOUS
 62
         3
100
AcDbVertex
100
AcDb3dPolylineVertex
 10
468.5171182371
 20
-49.4651920599
 30
275.0540965216
 70
        32
  0
VERTEX
  5
158
100
AcDbEntity
  8
CK_LEVEL_1
  6
CONTINUOUS
 62
         3
100
AcDbVertex
100
AcDb3dPolylineVertex
 10
468.4799739293
 20
-49.4638544353
 30
275.0481393323
 70
        32
  0
VERTEX
  5
15A
100
AcDbEntity
  8
CK_LEVEL_1
  6
CONTINUOUS
 62
         3
100
AcDbVertex
100
AcDb3dPolylineVertex
 10
468.4428249758
 20
-49.4626741436
 30
275.0421814988
 70
        32
  0
VERTEX
  5
15C
100
AcDbEntity
  8
CK_LEVEL_1
  6
CONTINUOUS
 62
         3
100
AcDbVertex
100
AcDb3dPolylineVertex
 10
468.4056718638
 20
-49.4616511941
 30
275.0362230992
 70
        32
  0
VERTEX
  5
15E
100
AcDbEntity
  8
CK_LEVEL_1
  6
CONTINUOUS
 62
         3
100
AcDbVertex
100
AcDb3dPolylineVertex
 10
468.3685150809
 20
-49.4607855961
 30
275.0302642117
 70
        32
  0
VERTEX
  5
160
100
AcDbEntity
  8
CK_LEVEL_1
  6
CONTINUOUS
 62
         3
100
AcDbVertex
100
AcDb3dPolylineVertex
 10
468.3313551144
 20
-49.4600773587
 30
275.0243049147
 70
        32
  0
VERTEX
  5
162
100
AcDbEntity
  8
CK_LEVEL_1
  6
CONTINUOUS
 62
         3
100
AcDbVertex
100
AcDb3dPolylineVertex
 10
468.2941924518
 20
-49.4595264913
 30
275.0183452864
 70
        32
  0
VERTEX
  5
164
100
AcDbEntity
  8
CK_LEVEL_1
  6
CONTINUOUS
 62
         3
100
AcDbVertex
100
AcDb3dPolylineVertex
 10
468.2570275805
 20
-49.4591330031
 30
275.012385405
 70
        32
  0
VERTEX
  5
166
100
AcDbEntity
  8
CK_LEVEL_1
  6
CONTINUOUS
 62
         3
100
AcDbVertex
100
AcDb3dPolylineVertex
 10
468.2198609879
 20
-49.4588969034
 30
275.0064253487
 70
        32
  0
VERTEX
  5
168
100
AcDbEntity
  8
CK_LEVEL_1
  6
CONTINUOUS
 62
         3
100
AcDbVertex
100
AcDb3dPolylineVertex
 10
468.1826931614
 20
-49.4588182014
 30
275.0004651958
 70
        32
  0
SEQEND
  5
16A
100
AcDbEntity
  8
CK_LEVEL_1
  6
CONTINUOUS
 62
         3
  0
CIRCLE
  5
16B
100
AcDbEntity
  8
CK_LEVEL_1
  6
CONTINUOUS
 62
         3
100
AcDbCircle
 10
-249.3128960166
 20
-58.4588182014
 30
-259.272551486
 40
9.0
210
0.0
220
0.0
230
-1.0
  0
CIRCLE
  5
16C
100
AcDbEntity
  8
CK_LEVEL_1
  6
CONTINUOUS
 62
         3
100
AcDbCircle
 10
-249.3128960166
 20
-58.4588182014
 30
-4.0
 40
9.0
210
0.0
220
0.0
230
-1.0
  0
LINE
  5
16D
100
AcDbEntity
  8
CK_LEVEL_1
  6
CONTINUOUS
 62
         3
100
AcDbLine
 10
477.0697585634
 20
-58.4588182014
 30
276.4283471001
 11
479.4523701689
 21
-58.4588182014
 31
262.9158852185
  0
LINE
  5
16E
100
AcDbEntity
  8
CK_LEVEL_1
  6
CONTINUOUS
 62
         3
100
AcDbLine
 10
468.1826931614
 20
-67.4588182014
 30
275.0004651958
 11
470.5891003918
 21
-67.4588182014
 31
261.3530516195
  0
LINE
  5
16F
100
AcDbEntity
  8
CK_LEVEL_1
  6
CONTINUOUS
 62
         3
100
AcDbLine
 10
459.295150486
 20
-58.4588182014
 30
273.5752900432
 11
461.7258306146
 21
-58.4588182014
 31
259.7902180205
  0
LINE
  5
170
100
AcDbEntity
  8
CK_LEVEL_1
  6
CONTINUOUS
 62
         3
100
AcDbLine
 10
468.1826931614
 20
-49.4588182014
 30
275.0004651958
 11
470.5891003918
 21
-49.4588182014
 31
261.3530516195
  0
CIRCLE
  5
171
100
AcDbEntity
  8
CK_LEVEL_1
  6
CONTINUOUS
 62
         3
100
AcDbCircle
 10
58.4588182014
 20
369.272551486
 30
-359.3128960166
 40
9.0
210
-1.0
220
0.0
230
0.0
  0
ARC
  5
172
100
AcDbEntity
  8
CK_LEVEL_1
  6
CONTINUOUS
 62
         3
100
AcDbCircle
 10
-359.3128960166
 20
259.272551486
 30
-67.4588182014
 40
110.0
210
0.0
220
1.0
230
0.0
100
AcDbArc
 50
0.0
 51
171.77961725
  0
ARC
  5
173
100
AcDbEntity
  8
CK_LEVEL_1
  6
CONTINUOUS
 62
         3
100
AcDbCircle
 10
-359.3128960166
 20
259.272551486
 30
-58.4588182014
 40
119.0
210
0.0
220
1.0
230
0.0
100
AcDbArc
 50
0.0
 51
171.7109926641
  0
ARC
  5
174
100
AcDbEntity
  8
CK_LEVEL_1
  6
CONTINUOUS
 62
         3
100
AcDbCircle
 10
-359.3128960166
 20
259.272551486
 30
-49.4588182014
 40
110.0
210
0.0
220
1.0
230
0.0
100
AcDbArc
 50
0.0
 51
171.77961725
  0
ARC
  5
175
100
AcDbEntity
  8
CK_LEVEL_1
  6
CONTINUOUS
 62
         3
100
AcDbCircle
 10
-359.3128960166
 20
259.272551486
 30
-58.4588182014
 40
101.0
210
0.0
220
1.0
230
0.0
100
AcDbArc
 50
0.0
 51
171.77961725
  0
LINE
  5
176
100
AcDbEntity
  8
CK_LEVEL_1
  6
CONTINUOUS
 62
         3
100
AcDbLine
 10
249.3128960166
 20
-67.4588182014
 30
4.0
 11
249.3128960166
 21
-67.4588182014
 31
259.272551486
  0
LINE
  5
177
100
AcDbEntity
  8
CK_LEVEL_1
  6
CONTINUOUS
 62
         3
100
AcDbLine
 10
258.3128960166
 20
-58.4588182014
 30
4.0
 11
258.3128960166
 21
-58.4588182014
 31
259.272551486
  0
LINE
  5
178
100
AcDbEntity
  8
CK_LEVEL_1
  6
CONTINUOUS
 62
         3
100
AcDbLine
 10
249.3128960166
 20
-49.4588182014
 30
4.0
 11
249.3128960166
 21
-49.4588182014
 31
259.272551486
  0
LINE
  5
179
100
AcDbEntity
  8
CK_LEVEL_1
  6
CONTINUOUS
 62
         3
100
AcDbLine
 10
240.3128960166
 20
-58.4588182014
 30
4.0
 11
240.3128960166
 21
-58.4588182014
 31
259.272551486
  0
ENDBLK
  5
17A
100
AcDbEntity
  8
0
  6
CONTINUOUS
100
AcDbBlockEnd
  0
BLOCK
  5
17E
100
AcDbEntity
  8
0
100
AcDbBlockBegin
  2
CKCOLL130
 70
        64
 10
0.0
 20
0.0
 30
0.0
  3
CKCOLL130
  1

  0
CIRCLE
  5
17F
100
AcDbEntity
  8
CK_LEVEL_1
  6
CONTINUOUS
 62
         3
100
AcDbCircle
 10
58.4588182014
 20
508.8232756903
 30
160.3655717953
 40
8.7
210
-0.1736481776669474
220
0.0
230
0.9848077530122051
  0
CIRCLE
  5
180
100
AcDbEntity
  8
CK_LEVEL_1
  6
CONTINUOUS
 62
         3
100
AcDbCircle
 10
-58.4588182014
 20
508.8232756903
 30
-160.6655717953
 40
9.0
210
0.1736481776669462
220
0.0
230
-0.9848077530122052
  0
CIRCLE
  5
181
100
AcDbEntity
  8
CK_LEVEL_1
  6
CONTINUOUS
 62
         3
100
AcDbCircle
 10
58.4588182014
 20
508.8232756903
 30
175.3655717953
 40
9.0
210
-0.1736481776670202
220
0.0
230
0.9848077530121924
  0
ARC
  5
182
100
AcDbEntity
  8
CK_LEVEL_1
  6
CONTINUOUS
 62
         3
100
AcDbCircle
 10
-464.6259956056
 20
245.0701961786
 30
-58.4588182014
 40
0.3
210
0.0
220
1.0
230
0.0
100
AcDbArc
 50
260.0
 51
350.0
  0
ARC
  5
183
100
AcDbEntity
  8
CK_LEVEL_1
  6
CONTINUOUS
 62
         3
100
AcDbCircle
 10
67.1588182014
 20
160.6655717953
 30
-508.8232756903
 40
0.3
210
-0.984807753012205
220
0.0
230
-0.1736481776669474
100
AcDbArc
 50
270.0
 51
360.0
  0
ARC
  5
184
100
AcDbEntity
  8
CK_LEVEL_1
  6
CONTINUOUS
 62
         3
100
AcDbCircle
 10
481.761650508
 20
248.09167447
 30
58.4588182014
 40
0.3
210
0.0
220
-1.0
230
0.0
100
AcDbArc
 50
280.0
 51
370.0
  0
ARC
  5
185
100
AcDbEntity
  8
CK_LEVEL_1
  6
CONTINUOUS
 62
         3
100
AcDbCircle
 10
-49.7588182014
 20
160.6655717953
 30
508.8232756903
 40
0.3
210
0.984807753012205
220
0.0
230
0.1736481776669474
100
AcDbArc
 50
270.0
 51
360.0
  0
LINE
  5
186
100
AcDbEntity
  8
CK_LEVEL_1
  6
CONTINUOUS
 62
         3
100
AcDbLine
 10
470.6411948451
 20
-67.4588182014
 30
261.0576092936
 11
473.1938230568
 21
-67.4588182014
 31
246.5809353243
  0
LINE
  5
187
100
AcDbEntity
  8
CK_LEVEL_1
  6
CONTINUOUS
 62
         3
100
AcDbLine
 10
461.777925068
 20
-58.4588182014
 30
259.4947756946
 11
464.3305532797
 21
-58.4588182014
 31
245.0181017253
  0
LINE
  5
188
100
AcDbEntity
  8
CK_LEVEL_1
  6
CONTINUOUS
 62
         3
100
AcDbLine
 10
470.6411948451
 20
-49.4588182014
 30
261.0576092936
 11
473.1938230568
 21
-49.4588182014
 31
246.5809353243
  0
LINE
  5
189
100
AcDbEntity
  8
CK_LEVEL_1
  6
CONTINUOUS
 62
         3
100
AcDbLine
 10
479.5044646222
 20
-58.4588182014
 30
262.6204428926
 11
482.0570928339
 21
-58.4588182014
 31
248.1437689233
  0
ENDBLK
  5
18A
100
AcDbEntity
  8
0
  6
CONTINUOUS
100
AcDbBlockEnd
  0
ENDSEC
  0
SECTION
  2
ENTITIES
  0
INSERT
  5
2C
100
AcDbEntity
  8
0
  6
CONTINUOUS
100
AcDbBlockReference
  2
CKCOLL60
 10
0.0
 20
0.0
 30
0.0
  0
INSERT
  5
17C
100
AcDbEntity
  8
0
  6
CONTINUOUS
100
AcDbBlockReference
  2
CKCOLL86
 10
0.0
 20
0.0
 30
0.0
  0
INSERT
  5
18C
100
AcDbEntity
  8
0
  6
CONTINUOUS
100
AcDbBlockReference
  2
CKCOLL130
 10
0.0
 20
0.0
 30
0.0
  0
ENDSEC
  0
SECTION
  2
OBJECTS
  0
DICTIONARY
  5
19
100
AcDbDictionary
  3
ACAD_GROUP
350
1A
  3
ACAD_MLINESTYLE
350
1B
  0
DICTIONARY
  5
1A
102
{ACAD_REACTORS
330
19
102
}
100
AcDbDictionary
  0
DICTIONARY
  5
1B
102
{ACAD_REACTORS
330
19
102
}
100
AcDbDictionary
  3
STANDARD
350
1C
  0
MLINESTYLE
  5
1C
102
{ACAD_REACTORS
330
1B
102
}
100
AcDbMlineStyle
  2
STANDARD
 70
         0
  3

 62
         0
 51
90.0
 52
90.0
 71
         2
 49
0.5
 62
       256
  6
BYLAYER
 49
-0.5
 62
       256
  6
BYLAYER
  0
ENDSEC
  0
EOF
