  0
SECTION
  2
HEADER
  9
$ACADVER
  1
AC1014
  9
$ACADMAINTVER
 70
         0
  9
$DWGCODEPAGE
  3
DOS850
  9
$INSBASE
 10
0.0
 20
0.0
 30
0.0
  9
$EXTMIN
 10
87.5573687459
 20
-226.4781002446
 30
0.0
  9
$EXTMAX
 10
630.7666118254
 20
140.9616963005
 30
0.0
  9
$LIMMIN
 10
0.0
 20
0.0
  9
$LIMMAX
 10
0.0
 20
0.0
  9
$ORTHOMODE
 70
         0
  9
$REGENMODE
 70
         1
  9
$FILLMODE
 70
         1
  9
$QTEXTMODE
 70
         0
  9
$MIRRTEXT
 70
         1
  9
$DRAGMODE
 70
         2
  9
$LTSCALE
 40
1.0
  9
$OSMODE
 70
         0
  9
$ATTMODE
 70
         1
  9
$TEXTSIZE
 40
5.0
  9
$TRACEWID
 40
0.05
  9
$TEXTSTYLE
  7
STANDARD
  9
$CLAYER
  8
0
  9
$CELTYPE
  6
CONTINUOUS
  9
$CECOLOR
 62
         3
  9
$CELTSCALE
 40
1.0
  9
$DELOBJ
 70
         1
  9
$DISPSILH
 70
         0
  9
$DIMSCALE
 40
1.0
  9
$DIMASZ
 40
0.18
  9
$DIMEXO
 40
0.0625
  9
$DIMDLI
 40
0.38
  9
$DIMRND
 40
0.0
  9
$DIMDLE
 40
0.0
  9
$DIMEXE
 40
0.25
  9
$DIMTP
 40
0.01
  9
$DIMTM
 40
-0.01
  9
$DIMTXT
 40
5.0
  9
$DIMCEN
 40
0.09
  9
$DIMTSZ
 40
0.0
  9
$DIMTOL
 70
         0
  9
$DIMLIM
 70
         0
  9
$DIMTIH
 70
         1
  9
$DIMTOH
 70
         1
  9
$DIMSE1
 70
         0
  9
$DIMSE2
 70
         0
  9
$DIMTAD
 70
         0
  9
$DIMZIN
 70
         0
  9
$DIMBLK
  1

  9
$DIMASO
 70
         1
  9
$DIMSHO
 70
         1
  9
$DIMPOST
  1

  9
$DIMAPOST
  1

  9
$DIMALT
 70
         0
  9
$DIMALTD
 70
         2
  9
$DIMALTF
 40
25.4
  9
$DIMLFAC
 40
1.0
  9
$DIMTOFL
 70
         0
  9
$DIMTVP
 40
0.0
  9
$DIMTIX
 70
         0
  9
$DIMSOXD
 70
         0
  9
$DIMSAH
 70
         0
  9
$DIMBLK1
  1

  9
$DIMBLK2
  1

  9
$DIMSTYLE
  2
STANDARD
  9
$DIMCLRD
 70
         0
  9
$DIMCLRE
 70
         0
  9
$DIMCLRT
 70
         3
  9
$DIMTFAC
 40
1.0
  9
$DIMGAP
 40
0.09
  9
$DIMJUST
 70
         0
  9
$DIMSD1
 70
         0
  9
$DIMSD2
 70
         0
  9
$DIMTOLJ
 70
         1
  9
$DIMTZIN
 70
         0
  9
$DIMALTZ
 70
         0
  9
$DIMALTTZ
 70
         0
  9
$DIMFIT
 70
         3
  9
$DIMUPT
 70
         0
  9
$DIMUNIT
 70
         2
  9
$DIMDEC
 70
         4
  9
$DIMTDEC
 70
         4
  9
$DIMALTU
 70
         2
  9
$DIMALTTD
 70
         2
  9
$DIMTXSTY
  7
STANDARD
  9
$DIMAUNIT
 70
         0
  9
$LUNITS
 70
         2
  9
$LUPREC
 70
        10
  9
$SKETCHINC
 40
0.1
  9
$FILLETRAD
 40
0.0
  9
$AUNITS
 70
         0
  9
$AUPREC
 70
         0
  9
$MENU
  1
acad
  9
$ELEVATION
 40
0.0
  9
$PELEVATION
 40
0.0
  9
$THICKNESS
 40
0.0
  9
$LIMCHECK
 70
         0
  9
$BLIPMODE
 70
         1
  9
$CHAMFERA
 40
0.0
  9
$CHAMFERB
 40
0.0
  9
$CHAMFERC
 40
0.0
  9
$CHAMFERD
 40
0.0
  9
$SKPOLY
 70
         0
  9
$TDCREATE
 40
0.000000000
  9
$TDUPDATE
 40
0.000000000
  9
$TDINDWG
 40
0.0000000000
  9
$TDUSRTIMER
 40
0.0000000000
  9
$USRTIMER
 70
         1
  9
$ANGBASE
 50
0.0
  9
$ANGDIR
 70
         0
  9
$PDMODE
 70
         2
  9
$PDSIZE
 40
0.0
  9
$PLINEWID
 40
0.0
  9
$COORDS
 70
         0
  9
$SPLFRAME
 70
         0
  9
$SPLINETYPE
 70
         6
  9
$SPLINESEGS
 70
         8
  9
$ATTDIA
 70
         0
  9
$ATTREQ
 70
         1
  9
$HANDLING
 70
         1
  9
$HANDSEED
  5
EC
  9
$SURFTAB1
 70
         6
  9
$SURFTAB2
 70
         6
  9
$SURFTYPE
 70
         6
  9
$SURFU
 70
         6
  9
$SURFV
 70
         6
  9
$UCSNAME
  2

  9
$UCSORG
 10
0.0
 20
0.0
 30
0.0
  9
$UCSXDIR
 10
1.0
 20
0.0
 30
0.0
  9
$UCSYDIR
 10
0.0
 20
1.0
 30
0.0
  9
$PUCSNAME
  2

  9
$PUCSORG
 10
0.0
 20
0.0
 30
0.0
  9
$PUCSXDIR
 10
1.0
 20
0.0
 30
0.0
  9
$PUCSYDIR
 10
0.0
 20
1.0
 30
0.0
  9
$USERI1
 70
         0
  9
$USERI2
 70
         0
  9
$USERI3
 70
         0
  9
$USERI4
 70
         0
  9
$USERI5
 70
         0
  9
$USERR1
 40
0.0
  9
$USERR2
 40
0.0
  9
$USERR3
 40
0.0
  9
$USERR4
 40
0.0
  9
$USERR5
 40
0.0
  9
$WORLDVIEW
 70
         1
  9
$SHADEDGE
 70
         3
  9
$SHADEDIF
 70
        70
  9
$TILEMODE
 70
         1
  9
$MAXACTVP
 70
        16
  9
$PINSBASE
 10
0.0
 20
0.0
 30
0.0
  9
$PLIMCHECK
 70
         0
  9
$PEXTMIN
 10
1.0000000000E+20
 20
1.0000000000E+20
 30
1.0000000000E+20
  9
$PEXTMAX
 10
-1.0000000000E+20
 20
-1.0000000000E+20
 30
-1.0000000000E+20
  9
$PLIMMIN
 10
0.0
 20
0.0
  9
$PLIMMAX
 10
12.0
 20
9.0
  9
$UNITMODE
 70
         0
  9
$VISRETAIN
 70
         0
  9
$PLINEGEN
 70
         1
  9
$PSLTSCALE
 70
         0
  9
$TREEDEPTH
 70
      3020
  9
$PICKSTYLE
 70
         1
  9
$CMLSTYLE
  2
STANDARD
  9
$CMLJUST
 70
         0
  9
$CMLSCALE
 40
1.0
  9
$PROXYGRAPHICS
 70
         0
  9
$MEASUREMENT
 70
         0
  0
ENDSEC
  0
SECTION
  2
CLASSES
  0
CLASS
  1
LWPOLYLINE
  2
AcDbPolyline
  3
"AutoCAD"
 90
        0
280
         0
281
         1
  0
CLASS
  1
IMAGE
  2
AcDbRasterImage
  3
ISM
 90
      127
280
         0
281
         1
  0
CLASS
  1
OLE2FRAME
  2
AcDbOle2Frame
  3
""
 90
        0
280
         0
281
         1
  0
CLASS
  1
HATCH
  2
AcDbHatch
  3
"ACAD_SEDONA"
 90
        0
280
         0
281
         1
  0
CLASS
  1
DICTIONARYVAR
  2
AcDbDictionaryVar
  3
"AutoCAD"
 90
        0
280
         0
281
         0
  0
CLASS
  1
RASTERVARIABLES
  2
AcDbRasterVariables
  3
ISM
 90
        0
280
         0
281
         0
  0
CLASS
  1
IMAGEDEF
  2
AcDbRasterImageDef
  3
ISM
 90
        0
280
         0
281
         0
  0
CLASS
  1
IMAGEDEF_REACTOR
  2
AcDbRasterImageDefReactor
  3
ISM
 90
        1
280
         0
281
         0
  0
CLASS
  1
IDBUFFER
  2
AcDbIdBuffer
  3
"Acad"
 90
        0
280
         0
281
         0
  0
CLASS
  1
SPATIAL_FILTER
  2
AcDbSpatialFilter
  3
"Acad"
 90
        0
280
         0
281
         0
  0
CLASS
  1
XRECORD
  2
AcDbXrecord
  3
"<Built In>"
 90
        0
280
         0
281
         0
  0
CLASS
  1
SORTENTSTABLE
  2
AcDbSortentsTable
  3
"AutoCAD"
 90
        0
280
         0
281
         0
  0
CLASS
  1
LAYER_INDEX
  2
AcDbLayerIndex
  3
"Acad"
 90
        0
280
         0
281
         0
  0
CLASS
  1
SPATIAL_INDEX
  2
AcDbSpatialIndex
  3
"Acad"
 90
        0
280
         0
281
         0
  0
CLASS
  1
OBJECT_PTR
  2
CAseDLPNTableRecord
  3
"ASE-LPNTableRecord"
 90
        1
280
         0
281
         0
  0
CLASS
  1
LAYOUT
  2
AcDbLayout
  3
"AutoCAD 2000"
 90
        1
280
         0
281
         0
  0
CLASS
  1
PLOTSETTINGS
  2
AcDbPlotSettings
  3
"AutoCAD 2000"
 90
        1
280
         0
281
         0
  0
CLASS
  1
ACDBDICTIONARYWDFLT
  2
AcDbDictionaryWithDefault
  3
"AutoCAD 2000"
 90
        1
280
         0
281
         0
  0
CLASS
  1
ACDBPLACEHOLDER
  2
AcDbPlaceHolder
  3
"AutoCAD 2000"
 90
        1
280
         0
281
         0
  0
CLASS
  1
VBA_PROJECT
  2
AcDbVbaProject
  3
"acadvba"
 90
        1
280
         0
281
         0
  0
CLASS
  1
WIPEOUT
  2
AcDbWipeout
  3
WipeOut|AutoCAD Express Tool|expresstools@autodesk.com
 90
      127
280
         0
281
         1
  0
CLASS
  1
WIPEOUTVARIABLES
  2
AcDbWipeoutVariables
  3
WipeOut|AutoCAD Express Tool|expresstools@autodesk.com
 90
        0
280
         0
281
         0
  0
CLASS
  1
RTEXT
  2
RText
  3
RText|AutoCAD Express Tool|expresstools@autodesk.com
 90
        0
280
         0
281
         1
  0
CLASS
  1
ARCALIGNEDTEXT
  2
AcDbArcAlignedText
  3
ATEXT|AutoCAD Express Tool|expresstools@autodesk.com
 90
        0
280
         0
281
         1
  0
ENDSEC
  0
SECTION
  2
TABLES
  0
TABLE
  2
VPORT
  5
7
100
AcDbSymbolTable
 70
         1
  0
VPORT
  5
15
100
AcDbSymbolTableRecord
100
AcDbViewportTableRecord
  2
*ACTIVE
 70
         0
 10
0.0
 20
0.0
 11
1.0
 21
1.0
 12
359.1619902856
 22
-42.7582019721
 13
0.0
 23
0.0
 14
1.0
 24
1.0
 15
0.0
 25
0.0
 16
0.0
 26
0.0
 36
1.0
 17
0.0
 27
0.0
 37
0.0
 40
367.4397965451
 41
1.4783625731
 42
50.0
 43
0.0
 44
0.0
 50
0.0
 51
0.0
 71
         0
 72
       100
 73
         1
 74
         1
 75
         0
 76
         0
 77
         0
 78
         0
  0
ENDTAB
  0
TABLE
  2
LTYPE
  5
4
100
AcDbSymbolTable
 70
         6
  0
LTYPE
  5
11
100
AcDbSymbolTableRecord
100
AcDbLinetypeTableRecord
  2
BYBLOCK
 70
        64
  3

 72
        65
 73
         0
 40
0.0
  0
LTYPE
  5
12
100
AcDbSymbolTableRecord
100
AcDbLinetypeTableRecord
  2
BYLAYER
 70
        64
  3

 72
        65
 73
         0
 40
0.0
  0
LTYPE
  5
13
100
AcDbSymbolTableRecord
100
AcDbLinetypeTableRecord
  2
CONTINUOUS
 70
        64
  3
Solid line
 72
        65
 73
         0
 40
0.0
  0
LTYPE
  5
1D
100
AcDbSymbolTableRecord
100
AcDbLinetypeTableRecord
  2
DASHED
 70
        64
  3
_ _ _ _ _ _ _ _ _ _ _ _ _ _ _ _
 72
        65
 73
         2
 40
0.2
 49
0.1
 74
         0
 49
-0.1
 74
         0
  0
LTYPE
  5
1E
100
AcDbSymbolTableRecord
100
AcDbLinetypeTableRecord
  2
CENTER
 70
        64
  3
___ _ ___ _ ___ _ ___ _ ___ _ ___ _ ___ _ ___ _
 72
        65
 73
         4
 40
0.95
 49
0.625
 74
         0
 49
-0.125
 74
         0
 49
0.075
 74
         0
 49
-0.125
 74
         0
  0
LTYPE
  5
1F
100
AcDbSymbolTableRecord
100
AcDbLinetypeTableRecord
  2
PHANTOM
 70
        64
  3
______  __  __  ______  __  __  ______  __  __  
 72
        65
 73
         6
 40
1.025
 49
0.625
 74
         0
 49
-0.125
 74
         0
 49
0.075
 74
         0
 49
-0.125
 74
         0
 49
0.075
 74
         0
 49
-0.125
 74
         0
  0
ENDTAB
  0
TABLE
  2
LAYER
  5
2
100
AcDbSymbolTable
 70
         2
  0
LAYER
  5
14
100
AcDbSymbolTableRecord
100
AcDbLayerTableRecord
  2
0
 70
         0
 62
         7
  6
CONTINUOUS
  0
LAYER
  5
21
100
AcDbSymbolTableRecord
100
AcDbLayerTableRecord
  2
CK_LEVEL_1
 70
         0
 62
         7
  6
CONTINUOUS
  0
ENDTAB
  0
TABLE
  2
STYLE
  5
3
100
AcDbSymbolTable
 70
         1
  0
STYLE
  5
17
100
AcDbSymbolTableRecord
100
AcDbTextStyleTableRecord
  2
STANDARD
 70
         0
 40
0.0
 41
1.0
 50
0.0
 71
         0
 42
0.0
  3
txt
  4

  0
ENDTAB
  0
TABLE
  2
VIEW
  5
5
100
AcDbSymbolTable
 70
         0
  0
ENDTAB
  0
TABLE
  2
UCS
  5
6
100
AcDbSymbolTable
 70
         1
  0
UCS
  5
20
100
AcDbSymbolTableRecord
100
AcDbUCSTableRecord
  2
CK_VIEW_1
 70
         0
 10
0.0
 20
0.0
 30
1.0
 11
1.0
 21
0.0
 31
0.0
 12
0.0
 22
1.0
 32
0.0
  0
ENDTAB
  0
TABLE
  2
APPID
  5
8
100
AcDbSymbolTable
 70
         1
  0
APPID
  5
16
100
AcDbSymbolTableRecord
100
AcDbRegAppTableRecord
  2
ACAD
 70
         0
  0
ENDTAB
  0
TABLE
  2
DIMSTYLE
  5
9
100
AcDbSymbolTable
 70
         1
  0
DIMSTYLE
105
18
100
AcDbSymbolTableRecord
100
AcDbDimStyleTableRecord
  2
STANDARD
 70
         0
  3

  4

  5

  6

  7

 40
1.0
 41
0.18
 42
0.0625
 43
0.38
 44
0.18
 45
0.0
 46
0.0
 47
0.0
 48
0.0
 71
         0
 72
         0
 73
         1
 74
         1
 75
         0
 76
         0
 77
         0
 78
         0
140
0.18
141
0.09
142
0.0
143
25.4
144
1.0
145
0.0
146
1.0
147
0.09
170
         0
171
         2
172
         0
173
         0
174
         0
175
         0
176
         0
177
         0
178
         0
270
         2
271
         4
272
         4
273
         2
274
         2
275
         0
280
         0
281
         0
282
         0
283
         1
284
         0
285
         0
286
         0
287
         0
288
         0
340
17
  0
ENDTAB
  0
TABLE
  2
BLOCK_RECORD
  5
1
100
AcDbSymbolTable
 70
         5
  0
BLOCK_RECORD
  5
A
100
AcDbSymbolTableRecord
100
AcDbBlockTableRecord
  2
*MODEL_SPACE
  0
BLOCK_RECORD
  5
B
100
AcDbSymbolTableRecord
100
AcDbBlockTableRecord
  2
*PAPER_SPACE
  0
BLOCK_RECORD
  5
22
100
AcDbSymbolTableRecord
100
AcDbBlockTableRecord
  2
CKCOLL12
  0
BLOCK_RECORD
  5
2D
100
AcDbSymbolTableRecord
100
AcDbBlockTableRecord
  2
CKCOLL18
  0
BLOCK_RECORD
  5
62
100
AcDbSymbolTableRecord
100
AcDbBlockTableRecord
  2
CKCOLL77
  0
BLOCK_RECORD
  5
94
100
AcDbSymbolTableRecord
100
AcDbBlockTableRecord
  2
CKCOLL125
  0
BLOCK_RECORD
  5
E1
100
AcDbSymbolTableRecord
100
AcDbBlockTableRecord
  2
CKCOLL200
  0
ENDTAB
  0
ENDSEC
  0
SECTION
  2
BLOCKS
  0
BLOCK
  5
D
100
AcDbEntity
  8
0
100
AcDbBlockBegin
  2
*MODEL_SPACE
 70
         0
 10
0.0
 20
0.0
 30
0.0
  3
*MODEL_SPACE
  1

  0
ENDBLK
  5
E
100
AcDbEntity
  8
0
100
AcDbBlockEnd
  0
BLOCK
  5
F
100
AcDbEntity
 67
         1
  8
0
100
AcDbBlockBegin
  2
*PAPER_SPACE
 70
         0
 10
0.0
 20
0.0
 30
0.0
  3
*PAPER_SPACE
  1

  0
ENDBLK
  5
10
100
AcDbEntity
 67
         1
  8
0
100
AcDbBlockEnd
  0
BLOCK
  5
23
100
AcDbEntity
  8
0
100
AcDbBlockBegin
  2
CKCOLL12
 70
        64
 10
0.0
 20
0.0
 30
0.0
  3
CKCOLL12
  1

  0
LINE
  5
24
100
AcDbEntity
  8
CK_LEVEL_1
  6
CONTINUOUS
 62
         3
100
AcDbLine
 10
320.0313952101
 20
51.7999999999
 30
123.5483738
 11
290.0313952101
 21
51.7999999999
 31
123.5483738
  0
LINE
  5
25
100
AcDbEntity
  8
CK_LEVEL_1
  6
CONTINUOUS
 62
         3
100
AcDbLine
 10
320.0313952101
 20
60.5999999999
 30
114.7483738
 11
290.0313952101
 21
60.5999999999
 31
114.7483738
  0
LINE
  5
26
100
AcDbEntity
  8
CK_LEVEL_1
  6
CONTINUOUS
 62
         3
100
AcDbLine
 10
320.0313952101
 20
51.7999999999
 30
105.9483738
 11
290.0313952101
 21
51.7999999999
 31
105.9483738
  0
LINE
  5
27
100
AcDbEntity
  8
CK_LEVEL_1
  6
CONTINUOUS
 62
         3
100
AcDbLine
 10
320.0313952101
 20
42.9999999999
 30
114.7483738
 11
290.0313952101
 21
42.9999999999
 31
114.7483738
  0
CIRCLE
  5
28
100
AcDbEntity
  8
CK_LEVEL_1
  6
CONTINUOUS
 62
         3
100
AcDbCircle
 10
51.7999999999
 20
114.7483738
 30
290.0313952101
 40
8.8
210
1.0
220
0.0
230
0.0
  0
CIRCLE
  5
29
100
AcDbEntity
  8
CK_LEVEL_1
  6
CONTINUOUS
 62
         3
100
AcDbCircle
 10
51.7999999999
 20
114.7483738
 30
320.0313952101
 40
8.8
210
1.0
220
0.0
230
0.0
  0
ENDBLK
  5
2A
100
AcDbEntity
  8
0
  6
CONTINUOUS
100
AcDbBlockEnd
  0
BLOCK
  5
2E
100
AcDbEntity
  8
0
100
AcDbBlockBegin
  2
CKCOLL18
 70
        64
 10
0.0
 20
0.0
 30
0.0
  3
CKCOLL18
  1

  0
LINE
  5
2F
100
AcDbEntity
  8
CK_LEVEL_1
  6
CONTINUOUS
 62
         3
100
AcDbLine
 10
438.1987750811
 20
59.5599999999
 30
63.5483738
 11
437.0831815739
 21
59.5599999999
 31
76.2996659356
  0
LINE
  5
30
100
AcDbEntity
  8
CK_LEVEL_1
  6
CONTINUOUS
 62
         3
100
AcDbLine
 10
430.4683042239
 20
51.7999999999
 30
62.8720452363
 11
429.3527107167
 21
51.7999999999
 31
75.6233373719
  0
LINE
  5
31
100
AcDbEntity
  8
CK_LEVEL_1
  6
CONTINUOUS
 62
         3
100
AcDbLine
 10
438.1987750811
 20
44.0399999999
 30
63.5483738
 11
437.0831815739
 21
44.0399999999
 31
76.2996659356
  0
LINE
  5
32
100
AcDbEntity
  8
CK_LEVEL_1
  6
CONTINUOUS
 62
         3
100
AcDbLine
 10
445.9292459382
 20
51.7999999999
 30
64.2247023638
 11
444.8136524311
 21
51.7999999999
 31
76.9759944993
  0
LINE
  5
33
100
AcDbEntity
  8
CK_LEVEL_1
  6
CONTINUOUS
 62
         3
100
AcDbLine
 10
437.0343743579
 20
44.5999999999
 30
76.8575349665
 11
437.0831815739
 21
44.0399999999
 31
76.2996659356
  0
LINE
  5
34
100
AcDbEntity
  8
CK_LEVEL_1
  6
CONTINUOUS
 62
         3
100
AcDbLine
 10
429.8617725317
 20
51.7999999999
 30
76.2300136188
 11
429.3527107167
 21
51.7999999999
 31
75.6233373719
  0
LINE
  5
35
100
AcDbEntity
  8
CK_LEVEL_1
  6
CONTINUOUS
 62
         3
100
AcDbLine
 10
437.0343743579
 20
58.9999999999
 30
76.8575349665
 11
437.0831815739
 21
59.5599999999
 31
76.2996659356
  0
LINE
  5
36
100
AcDbEntity
  8
CK_LEVEL_1
  6
CONTINUOUS
 62
         3
100
AcDbLine
 10
444.2069761842
 20
51.7999999999
 30
77.4850563143
 11
444.8136524311
 21
51.7999999999
 31
76.9759944993
  0
LINE
  5
37
100
AcDbEntity
  8
CK_LEVEL_1
  6
CONTINUOUS
 62
         3
100
AcDbLine
 10
429.4218405489
 20
51.7999999999
 30
81.2584591912
 11
429.8617725317
 21
51.7999999999
 31
76.2300136188
  0
LINE
  5
38
100
AcDbEntity
  8
CK_LEVEL_1
  6
CONTINUOUS
 62
         3
100
AcDbLine
 10
436.5944423752
 20
58.9999999999
 30
81.885980539
 11
437.0343743579
 21
58.9999999999
 31
76.8575349665
  0
LINE
  5
39
100
AcDbEntity
  8
CK_LEVEL_1
  6
CONTINUOUS
 62
         3
100
AcDbLine
 10
443.7670442015
 20
51.7999999999
 30
82.5135018868
 11
444.2069761842
 21
51.7999999999
 31
77.4850563143
  0
LINE
  5
3A
100
AcDbEntity
  8
CK_LEVEL_1
  6
CONTINUOUS
 62
         3
100
AcDbLine
 10
436.5944423752
 20
44.5999999999
 30
81.885980539
 11
437.0343743579
 21
44.5999999999
 31
76.8575349665
  0
LINE
  5
3B
100
AcDbEntity
  8
CK_LEVEL_1
  6
CONTINUOUS
 62
         3
100
AcDbLine
 10
427.827929032
 20
51.7999999999
 30
81.1190100028
 11
429.4322617378
 21
51.7999999999
 31
62.7814032639
  0
LINE
  5
3C
100
AcDbEntity
  8
CK_LEVEL_1
  6
CONTINUOUS
 62
         3
100
AcDbLine
 10
436.5944423752
 20
60.5999999999
 30
81.885980539
 11
438.1987750811
 21
60.5999999999
 31
63.5483738
  0
LINE
  5
3D
100
AcDbEntity
  8
CK_LEVEL_1
  6
CONTINUOUS
 62
         3
100
AcDbLine
 10
445.3609557184
 20
51.7999999999
 30
82.6529510751
 11
446.9652884243
 21
51.7999999999
 31
64.3153443362
  0
LINE
  5
3E
100
AcDbEntity
  8
CK_LEVEL_1
  6
CONTINUOUS
 62
         3
100
AcDbLine
 10
436.5944423752
 20
42.9999999999
 30
81.885980539
 11
438.1987750811
 21
42.9999999999
 31
63.5483738
  0
CIRCLE
  5
3F
100
AcDbEntity
  8
CK_LEVEL_1
  6
CONTINUOUS
 62
         3
100
AcDbCircle
 10
-51.7999999999
 20
257.1300651054
 30
-343.3489220492
 40
7.2
210
-0.929355104683559
220
0.0
230
0.3691870655895344
  0
CIRCLE
  5
40
100
AcDbEntity
  8
CK_LEVEL_1
  6
CONTINUOUS
 62
         3
100
AcDbCircle
 10
-51.7999999999
 20
368.2683358094
 30
-237.4547135441
 40
7.2
210
-0.7274018212027781
220
0.0
230
0.6862117679775549
  0
CIRCLE
  5
41
100
AcDbEntity
  8
CK_LEVEL_1
  6
CONTINUOUS
 62
         3
100
AcDbCircle
 10
-51.7999999999
 20
432.4604829129
 30
-98.0105782776
 40
7.2
210
-0.4226740866982797
220
0.0
230
0.9062817533382073
  0
ARC
  5
42
100
AcDbEntity
  8
CK_LEVEL_1
  6
CONTINUOUS
 62
         3
100
AcDbCircle
 10
-400.7314332439
 20
78.7483738
 30
44.5999999999
 40
36.0
210
0.0
220
1.0
230
0.0
100
AcDbArc
 50
90.0
 51
175.0
  0
ARC
  5
43
100
AcDbEntity
  8
CK_LEVEL_1
  6
CONTINUOUS
 62
         3
100
AcDbCircle
 10
-400.7314332439
 20
78.7483738
 30
51.7999999999
 40
43.2
210
0.0
220
1.0
230
0.0
100
AcDbArc
 50
90.0
 51
175.0
  0
ARC
  5
44
100
AcDbEntity
  8
CK_LEVEL_1
  6
CONTINUOUS
 62
         3
100
AcDbCircle
 10
-400.7314332439
 20
78.7483738
 30
58.9999999999
 40
36.0
210
0.0
220
1.0
230
0.0
100
AcDbArc
 50
90.0
 51
175.0
  0
ARC
  5
45
100
AcDbEntity
  8
CK_LEVEL_1
  6
CONTINUOUS
 62
         3
100
AcDbCircle
 10
-400.7314332439
 20
78.7483738
 30
51.7999999999
 40
28.8
210
0.0
220
1.0
230
0.0
100
AcDbArc
 50
90.0
 51
175.0
  0
CIRCLE
  5
46
100
AcDbEntity
  8
CK_LEVEL_1
  6
CONTINUOUS
 62
         3
100
AcDbCircle
 10
-51.7999999999
 20
257.575505085
 30
-343.0616322357
 40
8.8
210
-0.9288751608600563
220
0.0
230
0.370392947472282
  0
CIRCLE
  5
47
100
AcDbEntity
  8
CK_LEVEL_1
  6
CONTINUOUS
 62
         3
100
AcDbCircle
 10
-51.7999999999
 20
368.8835920569
 30
-236.5914244117
 40
8.8
210
-0.7256181289255906
220
0.0
230
0.6880976173294927
  0
CIRCLE
  5
48
100
AcDbEntity
  8
CK_LEVEL_1
  6
CONTINUOUS
 62
         3
100
AcDbCircle
 10
-51.7999999999
 20
432.839095154
 30
-96.4661625814
 40
8.8
210
-0.4191421515974053
220
0.0
230
0.907920622496426
  0
ARC
  5
49
100
AcDbEntity
  8
CK_LEVEL_1
  6
CONTINUOUS
 62
         3
100
AcDbCircle
 10
-400.7314332439
 20
78.7483738
 30
42.9999999999
 40
36.0
210
0.0
220
1.0
230
0.0
100
AcDbArc
 50
90.0
 51
175.0
  0
ARC
  5
4A
100
AcDbEntity
  8
CK_LEVEL_1
  6
CONTINUOUS
 62
         3
100
AcDbCircle
 10
-400.7314332439
 20
78.7483738
 30
51.7999999999
 40
44.8
210
0.0
220
1.0
230
0.0
100
AcDbArc
 50
90.0
 51
175.0
  0
ARC
  5
4B
100
AcDbEntity
  8
CK_LEVEL_1
  6
CONTINUOUS
 62
         3
100
AcDbCircle
 10
-400.7314332439
 20
78.7483738
 30
60.5999999999
 40
36.0
210
0.0
220
1.0
230
0.0
100
AcDbArc
 50
90.0
 51
175.0
  0
ARC
  5
4C
100
AcDbEntity
  8
CK_LEVEL_1
  6
CONTINUOUS
 62
         3
100
AcDbCircle
 10
-400.7314332439
 20
78.7483738
 30
51.7999999999
 40
27.2
210
0.0
220
1.0
230
0.0
100
AcDbArc
 50
90.0
 51
175.0
  0
LINE
  5
4D
100
AcDbEntity
  8
CK_LEVEL_1
  6
CONTINUOUS
 62
         3
100
AcDbLine
 10
320.0313952101
 20
51.7999999999
 30
107.5483738
 11
400.7314332439
 21
51.7999999999
 31
107.5483738
  0
LINE
  5
4E
100
AcDbEntity
  8
CK_LEVEL_1
  6
CONTINUOUS
 62
         3
100
AcDbLine
 10
320.0313952101
 20
58.9999999999
 30
114.7483738
 11
400.7314332439
 21
58.9999999999
 31
114.7483738
  0
LINE
  5
4F
100
AcDbEntity
  8
CK_LEVEL_1
  6
CONTINUOUS
 62
         3
100
AcDbLine
 10
320.0313952101
 20
51.7999999999
 30
121.9483738
 11
400.7314332439
 21
51.7999999999
 31
121.9483738
  0
LINE
  5
50
100
AcDbEntity
  8
CK_LEVEL_1
  6
CONTINUOUS
 62
         3
100
AcDbLine
 10
320.0313952101
 20
44.5999999999
 30
114.7483738
 11
400.7314332439
 21
44.5999999999
 31
114.7483738
  0
LINE
  5
51
100
AcDbEntity
  8
CK_LEVEL_1
  6
CONTINUOUS
 62
         3
100
AcDbLine
 10
320.0313952101
 20
51.7999999999
 30
105.9483738
 11
400.7314332439
 21
51.7999999999
 31
105.9483738
  0
LINE
  5
52
100
AcDbEntity
  8
CK_LEVEL_1
  6
CONTINUOUS
 62
         3
100
AcDbLine
 10
320.0313952101
 20
60.5999999999
 30
114.7483738
 11
400.7314332439
 21
60.5999999999
 31
114.7483738
  0
LINE
  5
53
100
AcDbEntity
  8
CK_LEVEL_1
  6
CONTINUOUS
 62
         3
100
AcDbLine
 10
320.0313952101
 20
51.7999999999
 30
123.5483738
 11
400.7314332439
 21
51.7999999999
 31
123.5483738
  0
LINE
  5
54
100
AcDbEntity
  8
CK_LEVEL_1
  6
CONTINUOUS
 62
         3
100
AcDbLine
 10
320.0313952101
 20
42.9999999999
 30
114.7483738
 11
400.7314332439
 21
42.9999999999
 31
114.7483738
  0
CIRCLE
  5
55
100
AcDbEntity
  8
CK_LEVEL_1
  6
CONTINUOUS
 62
         3
100
AcDbCircle
 10
-51.7999999999
 20
114.7483738
 30
-320.0313952101
 40
7.2
210
-1.0
220
0.0
230
0.0
  0
CIRCLE
  5
56
100
AcDbEntity
  8
CK_LEVEL_1
  6
CONTINUOUS
 62
         3
100
AcDbCircle
 10
51.7999999999
 20
114.7483738
 30
320.0313952101
 40
8.8
210
1.0
220
0.0
230
0.0
  0
CIRCLE
  5
57
100
AcDbEntity
  8
CK_LEVEL_1
  6
CONTINUOUS
 62
         3
100
AcDbCircle
 10
-51.7999999999
 20
442.069902165
 30
37.9150133386
 40
7.76
210
-0.0871557427478046
220
0.0
230
0.9961946980917328
  0
CIRCLE
  5
58
100
AcDbEntity
  8
CK_LEVEL_1
  6
CONTINUOUS
 62
         3
100
AcDbCircle
 10
-51.7999999999
 20
442.069902165
 30
25.1150133386
 40
7.76
210
-0.0871557427478046
220
0.0
230
0.9961946980917328
  0
CIRCLE
  5
59
100
AcDbEntity
  8
CK_LEVEL_1
  6
CONTINUOUS
 62
         3
100
AcDbCircle
 10
51.7999999999
 20
442.069902165
 30
-38.4750133386
 40
7.2
210
0.0871557427477642
220
0.0
230
-0.9961946980917362
  0
CIRCLE
  5
5A
100
AcDbEntity
  8
CK_LEVEL_1
  6
CONTINUOUS
 62
         3
100
AcDbCircle
 10
51.7999999999
 20
442.069902165
 30
-43.5226667562
 40
7.2
210
0.0871557427477642
220
0.0
230
-0.9961946980917362
  0
CIRCLE
  5
5B
100
AcDbEntity
  8
CK_LEVEL_1
  6
CONTINUOUS
 62
         3
100
AcDbCircle
 10
-51.7999999999
 20
442.069902165
 30
25.1150133386
 40
8.8
210
-0.0871557427478071
220
0.0
230
0.9961946980917326
  0
CIRCLE
  5
5C
100
AcDbEntity
  8
CK_LEVEL_1
  6
CONTINUOUS
 62
         3
100
AcDbCircle
 10
-51.7999999999
 20
442.069902165
 30
43.5226667562
 40
8.8
210
-0.0871557427478071
220
0.0
230
0.9961946980917326
  0
CIRCLE
  5
5D
100
AcDbEntity
  8
CK_LEVEL_1
  6
CONTINUOUS
 62
         3
100
AcDbCircle
 10
51.7999999999
 20
114.7483738
 30
400.7314332439
 40
7.2
210
1.0
220
0.0
230
0.0
  0
CIRCLE
  5
5E
100
AcDbEntity
  8
CK_LEVEL_1
  6
CONTINUOUS
 62
         3
100
AcDbCircle
 10
-51.7999999999
 20
114.7483738
 30
-400.7314332439
 40
8.8
210
-1.0
220
0.0
230
0.0
  0
ENDBLK
  5
5F
100
AcDbEntity
  8
0
  6
CONTINUOUS
100
AcDbBlockEnd
  0
BLOCK
  5
63
100
AcDbEntity
  8
0
100
AcDbBlockBegin
  2
CKCOLL77
 70
        64
 10
0.0
 20
0.0
 30
0.0
  3
CKCOLL77
  1

  0
ARC
  5
64
100
AcDbEntity
  8
CK_LEVEL_1
  6
CONTINUOUS
 62
         3
100
AcDbCircle
 10
-184.0
 20
94.9483738
 30
-368.4406200488
 40
0.5
210
-1.0
220
0.0
230
0.0
100
AcDbArc
 50
0.0
 51
90.0
  0
ARC
  5
65
100
AcDbEntity
  8
CK_LEVEL_1
  6
CONTINUOUS
 62
         3
100
AcDbCircle
 10
384.4406200488
 20
94.9483738
 30
-199.9999999999
 40
0.5
210
0.0
220
-1.0
230
0.0
100
AcDbArc
 50
0.0
 51
90.0
  0
ARC
  5
66
100
AcDbEntity
  8
CK_LEVEL_1
  6
CONTINUOUS
 62
         3
100
AcDbCircle
 10
215.9999999999
 20
94.9483738
 30
368.4406200488
 40
0.5
210
1.0
220
0.0
230
0.0
100
AcDbArc
 50
0.0
 51
90.0
  0
ARC
  5
67
100
AcDbEntity
  8
CK_LEVEL_1
  6
CONTINUOUS
 62
         3
100
AcDbCircle
 10
-352.4406200489
 20
94.9483738
 30
199.9999999999
 40
0.5
210
0.0
220
1.0
230
0.0
100
AcDbArc
 50
0.0
 51
90.0
  0
CIRCLE
  5
68
100
AcDbEntity
  8
CK_LEVEL_1
  6
CONTINUOUS
 62
         3
100
AcDbCircle
 10
368.4406200488
 20
199.9999999999
 30
95.3019271906
 40
16.3535533905
  0
LINE
  5
69
100
AcDbEntity
  8
CK_LEVEL_1
  6
CONTINUOUS
 62
         3
100
AcDbLine
 10
351.9406200489
 20
199.9999999999
 30
40.4483738
 11
351.9406200489
 21
199.9999999999
 31
94.9483738
  0
LINE
  5
6A
100
AcDbEntity
  8
CK_LEVEL_1
  6
CONTINUOUS
 62
         3
100
AcDbLine
 10
368.4406200488
 20
183.5
 30
40.4483738
 11
368.4406200488
 21
183.5
 31
94.9483738
  0
LINE
  5
6B
100
AcDbEntity
  8
CK_LEVEL_1
  6
CONTINUOUS
 62
         3
100
AcDbLine
 10
384.9406200488
 20
199.9999999999
 30
40.4483738
 11
384.9406200488
 21
199.9999999999
 31
94.9483738
  0
LINE
  5
6C
100
AcDbEntity
  8
CK_LEVEL_1
  6
CONTINUOUS
 62
         3
100
AcDbLine
 10
368.4406200488
 20
216.4999999999
 30
40.4483738
 11
368.4406200488
 21
216.4999999999
 31
94.9483738
  0
ARC
  5
6D
100
AcDbEntity
  8
CK_LEVEL_1
  6
CONTINUOUS
 62
         3
100
AcDbCircle
 10
-170.6
 20
27.7483738
 30
-368.4406200488
 40
0.5
210
-1.0
220
0.0
230
0.0
100
AcDbArc
 50
0.0
 51
90.0
  0
ARC
  5
6E
100
AcDbEntity
  8
CK_LEVEL_1
  6
CONTINUOUS
 62
         3
100
AcDbCircle
 10
397.8406200488
 20
27.7483738
 30
-199.9999999999
 40
0.5
210
0.0
220
-1.0
230
0.0
100
AcDbArc
 50
0.0
 51
90.0
  0
ARC
  5
6F
100
AcDbEntity
  8
CK_LEVEL_1
  6
CONTINUOUS
 62
         3
100
AcDbCircle
 10
229.3999999999
 20
27.7483738
 30
368.4406200488
 40
0.5
210
1.0
220
0.0
230
0.0
100
AcDbArc
 50
0.0
 51
90.0
  0
ARC
  5
70
100
AcDbEntity
  8
CK_LEVEL_1
  6
CONTINUOUS
 62
         3
100
AcDbCircle
 10
-339.0406200489
 20
27.7483738
 30
199.9999999999
 40
0.5
210
0.0
220
1.0
230
0.0
100
AcDbArc
 50
0.0
 51
90.0
  0
CIRCLE
  5
71
100
AcDbEntity
  8
CK_LEVEL_1
  6
CONTINUOUS
 62
         3
100
AcDbCircle
 10
368.4406200488
 20
199.9999999999
 30
28.1019271906
 40
29.7535533905
  0
LINE
  5
72
100
AcDbEntity
  8
CK_LEVEL_1
  6
CONTINUOUS
 62
         3
100
AcDbLine
 10
338.5406200489
 20
199.9999999999
 30
24.7483738
 11
338.5406200489
 21
199.9999999999
 31
27.7483738
  0
LINE
  5
73
100
AcDbEntity
  8
CK_LEVEL_1
  6
CONTINUOUS
 62
         3
100
AcDbLine
 10
368.4406200488
 20
170.1
 30
24.7483738
 11
368.4406200488
 21
170.1
 31
27.7483738
  0
LINE
  5
74
100
AcDbEntity
  8
CK_LEVEL_1
  6
CONTINUOUS
 62
         3
100
AcDbLine
 10
398.3406200488
 20
199.9999999999
 30
24.7483738
 11
398.3406200488
 21
199.9999999999
 31
27.7483738
  0
LINE
  5
75
100
AcDbEntity
  8
CK_LEVEL_1
  6
CONTINUOUS
 62
         3
100
AcDbLine
 10
368.4406200488
 20
229.8999999999
 30
24.7483738
 11
368.4406200488
 21
229.8999999999
 31
27.7483738
  0
LINE
  5
76
100
AcDbEntity
  8
CK_LEVEL_1
  6
CONTINUOUS
 62
         3
100
AcDbLine
 10
352.6906200489
 20
199.9999999999
 30
28.2483738
 11
352.6906200489
 21
199.9999999999
 31
36.2483738
  0
LINE
  5
77
100
AcDbEntity
  8
CK_LEVEL_1
  6
CONTINUOUS
 62
         3
100
AcDbLine
 10
368.4406200488
 20
184.25
 30
28.2483738
 11
368.4406200488
 21
184.25
 31
36.2483738
  0
LINE
  5
78
100
AcDbEntity
  8
CK_LEVEL_1
  6
CONTINUOUS
 62
         3
100
AcDbLine
 10
384.1906200488
 20
199.9999999999
 30
28.2483738
 11
384.1906200488
 21
199.9999999999
 31
36.2483738
  0
LINE
  5
79
100
AcDbEntity
  8
CK_LEVEL_1
  6
CONTINUOUS
 62
         3
100
AcDbLine
 10
368.4406200488
 20
215.7499999999
 30
28.2483738
 11
368.4406200488
 21
215.7499999999
 31
36.2483738
  0
LINE
  5
7A
100
AcDbEntity
  8
CK_LEVEL_1
  6
CONTINUOUS
 62
         3
100
AcDbLine
 10
352.9406200489
 20
199.9999999999
 30
36.2483738
 11
352.9406200489
 21
199.9999999999
 31
37.1939963516
  0
LINE
  5
7B
100
AcDbEntity
  8
CK_LEVEL_1
  6
CONTINUOUS
 62
         3
100
AcDbLine
 10
368.4406200488
 20
184.5
 30
36.2483738
 11
368.4406200488
 21
184.5
 31
37.1939963516
  0
LINE
  5
7C
100
AcDbEntity
  8
CK_LEVEL_1
  6
CONTINUOUS
 62
         3
100
AcDbLine
 10
383.9406200487
 20
199.9999999999
 30
36.2483738
 11
383.9406200487
 21
199.9999999999
 31
37.1939963516
  0
LINE
  5
7D
100
AcDbEntity
  8
CK_LEVEL_1
  6
CONTINUOUS
 62
         3
100
AcDbLine
 10
368.4406200488
 20
215.4999999999
 30
36.2483738
 11
368.4406200488
 21
215.4999999999
 31
37.1939963516
  0
ARC
  5
7E
100
AcDbEntity
  8
CK_LEVEL_1
  6
CONTINUOUS
 62
         3
100
AcDbCircle
 10
-196.5
 20
37.1939963516
 30
-368.4406200488
 40
12.0
210
-1.0
220
0.0
230
0.0
100
AcDbArc
 50
0.0
 51
15.7355744541
  0
ARC
  5
7F
100
AcDbEntity
  8
CK_LEVEL_1
  6
CONTINUOUS
 62
         3
100
AcDbCircle
 10
371.9406200487
 20
37.1939963516
 30
-199.9999999999
 40
12.0
210
0.0
220
-1.0
230
0.0
100
AcDbArc
 50
0.0
 51
15.7355744541
  0
ARC
  5
80
100
AcDbEntity
  8
CK_LEVEL_1
  6
CONTINUOUS
 62
         3
100
AcDbCircle
 10
203.4999999999
 20
37.1939963516
 30
368.4406200488
 40
12.0
210
1.0
220
0.0
230
0.0
100
AcDbArc
 50
0.0
 51
15.7355744541
  0
ARC
  5
81
100
AcDbEntity
  8
CK_LEVEL_1
  6
CONTINUOUS
 62
         3
100
AcDbCircle
 10
-364.9406200489
 20
37.1939963516
 30
199.9999999999
 40
12.0
210
0.0
220
1.0
230
0.0
100
AcDbArc
 50
0.0
 51
15.7355744541
  0
CIRCLE
  5
82
100
AcDbEntity
  8
CK_LEVEL_1
  6
CONTINUOUS
 62
         3
100
AcDbCircle
 10
368.4406200488
 20
199.9999999999
 30
37.8527951667
 40
15.4819023581
  0
CIRCLE
  5
83
100
AcDbEntity
  8
CK_LEVEL_1
  6
CONTINUOUS
 62
         3
100
AcDbCircle
 10
368.4406200488
 20
199.9999999999
 30
38.5096068643
 40
15.4276640201
  0
CIRCLE
  5
84
100
AcDbEntity
  8
CK_LEVEL_1
  6
CONTINUOUS
 62
         3
100
AcDbCircle
 10
368.4406200488
 20
199.9999999999
 30
39.1624503206
 40
15.3374485836
  0
CIRCLE
  5
85
100
AcDbEntity
  8
CK_LEVEL_1
  6
CONTINUOUS
 62
         3
100
AcDbCircle
 10
368.4406200488
 20
199.9999999999
 30
39.809356381
 40
15.2115281631
  0
CIRCLE
  5
86
100
AcDbEntity
  8
CK_LEVEL_1
  6
CONTINUOUS
 62
         3
100
AcDbCircle
 10
368.4406200488
 20
199.9999999999
 30
94.9483738
 40
16.4999999999
  0
CIRCLE
  5
87
100
AcDbEntity
  8
CK_LEVEL_1
  6
CONTINUOUS
 62
         3
100
AcDbCircle
 10
-368.4406200488
 20
199.9999999999
 30
-95.4483738
 40
15.9999999999
210
0.0
220
0.0
230
-1.0
  0
CIRCLE
  5
88
100
AcDbEntity
  8
CK_LEVEL_1
  6
CONTINUOUS
 62
         3
100
AcDbCircle
 10
368.4406200488
 20
199.9999999999
 30
40.4483738
 40
16.4999999999
  0
CIRCLE
  5
89
100
AcDbEntity
  8
CK_LEVEL_1
  6
CONTINUOUS
 62
         3
100
AcDbCircle
 10
368.4406200488
 20
199.9999999999
 30
27.7483738
 40
29.8999999999
  0
CIRCLE
  5
8A
100
AcDbEntity
  8
CK_LEVEL_1
  6
CONTINUOUS
 62
         3
100
AcDbCircle
 10
-368.4406200488
 20
199.9999999999
 30
-28.2483738
 40
29.3999999999
210
0.0
220
0.0
230
-1.0
  0
CIRCLE
  5
8B
100
AcDbEntity
  8
CK_LEVEL_1
  6
CONTINUOUS
 62
         3
100
AcDbCircle
 10
368.4406200488
 20
199.9999999999
 30
24.7483738
 40
29.8999999999
  0
CIRCLE
  5
8C
100
AcDbEntity
  8
CK_LEVEL_1
  6
CONTINUOUS
 62
         3
100
AcDbCircle
 10
368.4406200488
 20
199.9999999999
 30
28.2483738
 40
15.7499999999
  0
CIRCLE
  5
8D
100
AcDbEntity
  8
CK_LEVEL_1
  6
CONTINUOUS
 62
         3
100
AcDbCircle
 10
368.4406200488
 20
199.9999999999
 30
36.2483738
 40
15.7499999999
  0
CIRCLE
  5
8E
100
AcDbEntity
  8
CK_LEVEL_1
  6
CONTINUOUS
 62
         3
100
AcDbCircle
 10
368.4406200488
 20
199.9999999999
 30
36.2483738
 40
15.4999999999
  0
CIRCLE
  5
8F
100
AcDbEntity
  8
CK_LEVEL_1
  6
CONTINUOUS
 62
         3
100
AcDbCircle
 10
368.4406200488
 20
199.9999999999
 30
37.1939963516
 40
15.4999999999
  0
CIRCLE
  5
90
100
AcDbEntity
  8
CK_LEVEL_1
  6
CONTINUOUS
 62
         3
100
AcDbCircle
 10
368.4406200488
 20
199.9999999999
 30
40.4483738
 40
15.0502825689
  0
ENDBLK
  5
91
100
AcDbEntity
  8
0
  6
CONTINUOUS
100
AcDbBlockEnd
  0
BLOCK
  5
95
100
AcDbEntity
  8
0
100
AcDbBlockBegin
  2
CKCOLL125
 70
        64
 10
0.0
 20
0.0
 30
0.0
  3
CKCOLL125
  1

  0
ARC
  5
96
100
AcDbEntity
  8
CK_LEVEL_1
  6
CONTINUOUS
 62
         3
100
AcDbCircle
 10
292.4406200488
 20
20.5499999999
 30
114.7483738
 40
0.3
100
AcDbArc
 50
270.0
 51
360.0
  0
ARC
  5
97
100
AcDbEntity
  8
CK_LEVEL_1
  6
CONTINUOUS
 62
         3
100
AcDbCircle
 10
292.4406200488
 20
85.2983738
 30
-49.9999999999
 40
0.3
210
0.0
220
-1.0
230
0.0
100
AcDbArc
 50
270.0
 51
360.0
  0
ARC
  5
98
100
AcDbEntity
  8
CK_LEVEL_1
  6
CONTINUOUS
 62
         3
100
AcDbCircle
 10
-292.4406200488
 20
79.4499999999
 30
-114.7483738
 40
0.3
210
0.0
220
0.0
230
-1.0
100
AcDbArc
 50
90.0
 51
180.0
  0
ARC
  5
99
100
AcDbEntity
  8
CK_LEVEL_1
  6
CONTINUOUS
 62
         3
100
AcDbCircle
 10
-292.4406200488
 20
144.1983738
 30
49.9999999999
 40
0.3
210
0.0
220
1.0
230
0.0
100
AcDbArc
 50
90.0
 51
180.0
  0
CIRCLE
  5
9A
100
AcDbEntity
  8
CK_LEVEL_1
  6
CONTINUOUS
 62
         3
100
AcDbCircle
 10
49.9999999999
 20
114.7483738
 30
292.6527520832
 40
29.6621320344
210
1.0
220
0.0
230
0.0
  0
LINE
  5
9B
100
AcDbEntity
  8
CK_LEVEL_1
  6
CONTINUOUS
 62
         3
100
AcDbLine
 10
292.1406200488
 20
49.9999999999
 30
125.8983738
 11
292.7406200488
 21
49.9999999999
 31
125.8983738
  0
LINE
  5
9C
100
AcDbEntity
  8
CK_LEVEL_1
  6
CONTINUOUS
 62
         3
100
AcDbLine
 10
292.1406200488
 20
38.8499999999
 30
114.7483738
 11
292.7406200488
 21
38.8499999999
 31
114.7483738
  0
LINE
  5
9D
100
AcDbEntity
  8
CK_LEVEL_1
  6
CONTINUOUS
 62
         3
100
AcDbLine
 10
292.1406200488
 20
49.9999999999
 30
103.5983738
 11
292.7406200488
 21
49.9999999999
 31
103.5983738
  0
LINE
  5
9E
100
AcDbEntity
  8
CK_LEVEL_1
  6
CONTINUOUS
 62
         3
100
AcDbLine
 10
292.1406200488
 20
61.1499999999
 30
114.7483738
 11
292.7406200488
 21
61.1499999999
 31
114.7483738
  0
ARC
  5
9F
100
AcDbEntity
  8
CK_LEVEL_1
  6
CONTINUOUS
 62
         3
100
AcDbCircle
 10
291.8406200488
 20
37.7999999999
 30
114.7483738
 40
0.3
100
AcDbArc
 50
270.0
 51
360.0
  0
ARC
  5
A0
100
AcDbEntity
  8
CK_LEVEL_1
  6
CONTINUOUS
 62
         3
100
AcDbCircle
 10
291.8406200488
 20
102.5483738
 30
-49.9999999999
 40
0.3
210
0.0
220
-1.0
230
0.0
100
AcDbArc
 50
270.0
 51
360.0
  0
ARC
  5
A1
100
AcDbEntity
  8
CK_LEVEL_1
  6
CONTINUOUS
 62
         3
100
AcDbCircle
 10
-291.8406200488
 20
62.1999999999
 30
-114.7483738
 40
0.3
210
0.0
220
0.0
230
-1.0
100
AcDbArc
 50
90.0
 51
180.0
  0
ARC
  5
A2
100
AcDbEntity
  8
CK_LEVEL_1
  6
CONTINUOUS
 62
         3
100
AcDbCircle
 10
-291.8406200488
 20
126.9483738
 30
49.9999999999
 40
0.3
210
0.0
220
1.0
230
0.0
100
AcDbArc
 50
90.0
 51
180.0
  0
CIRCLE
  5
A3
100
AcDbEntity
  8
CK_LEVEL_1
  6
CONTINUOUS
 62
         3
100
AcDbCircle
 10
49.9999999999
 20
114.7483738
 30
292.0527520832
 40
12.4121320344
210
1.0
220
0.0
230
0.0
  0
LINE
  5
A4
100
AcDbEntity
  8
CK_LEVEL_1
  6
CONTINUOUS
 62
         3
100
AcDbLine
 10
290.6406200488
 20
49.9999999999
 30
127.2483738
 11
291.8406200488
 21
49.9999999999
 31
127.2483738
  0
LINE
  5
A5
100
AcDbEntity
  8
CK_LEVEL_1
  6
CONTINUOUS
 62
         3
100
AcDbLine
 10
290.6406200488
 20
37.4999999999
 30
114.7483738
 11
291.8406200488
 21
37.4999999999
 31
114.7483738
  0
LINE
  5
A6
100
AcDbEntity
  8
CK_LEVEL_1
  6
CONTINUOUS
 62
         3
100
AcDbLine
 10
290.6406200488
 20
49.9999999999
 30
102.2483738
 11
291.8406200488
 21
49.9999999999
 31
102.2483738
  0
LINE
  5
A7
100
AcDbEntity
  8
CK_LEVEL_1
  6
CONTINUOUS
 62
         3
100
AcDbLine
 10
290.6406200488
 20
62.4999999999
 30
114.7483738
 11
291.8406200488
 21
62.4999999999
 31
114.7483738
  0
ARC
  5
A8
100
AcDbEntity
  8
CK_LEVEL_1
  6
CONTINUOUS
 62
         3
100
AcDbCircle
 10
290.6406200488
 20
37.7999999999
 30
114.7483738
 40
0.3
100
AcDbArc
 50
180.0
 51
270.0
  0
ARC
  5
A9
100
AcDbEntity
  8
CK_LEVEL_1
  6
CONTINUOUS
 62
         3
100
AcDbCircle
 10
290.6406200488
 20
102.5483738
 30
-49.9999999999
 40
0.3
210
0.0
220
-1.0
230
0.0
100
AcDbArc
 50
180.0
 51
270.0
  0
ARC
  5
AA
100
AcDbEntity
  8
CK_LEVEL_1
  6
CONTINUOUS
 62
         3
100
AcDbCircle
 10
-290.6406200488
 20
62.1999999999
 30
-114.7483738
 40
0.3
210
0.0
220
0.0
230
-1.0
100
AcDbArc
 50
0.0
 51
90.0
  0
ARC
  5
AB
100
AcDbEntity
  8
CK_LEVEL_1
  6
CONTINUOUS
 62
         3
100
AcDbCircle
 10
-290.6406200488
 20
126.9483738
 30
49.9999999999
 40
0.3
210
0.0
220
1.0
230
0.0
100
AcDbArc
 50
0.0
 51
90.0
  0
CIRCLE
  5
AC
100
AcDbEntity
  8
CK_LEVEL_1
  6
CONTINUOUS
 62
         3
100
AcDbCircle
 10
49.9999999999
 20
114.7483738
 30
290.4284880145
 40
12.4121320344
210
1.0
220
0.0
230
0.0
  0
LINE
  5
AD
100
AcDbEntity
  8
CK_LEVEL_1
  6
CONTINUOUS
 62
         3
100
AcDbLine
 10
289.7406200488
 20
49.9999999999
 30
125.8983738
 11
290.3406200488
 21
49.9999999999
 31
125.8983738
  0
LINE
  5
AE
100
AcDbEntity
  8
CK_LEVEL_1
  6
CONTINUOUS
 62
         3
100
AcDbLine
 10
289.7406200488
 20
38.8499999999
 30
114.7483738
 11
290.3406200488
 21
38.8499999999
 31
114.7483738
  0
LINE
  5
AF
100
AcDbEntity
  8
CK_LEVEL_1
  6
CONTINUOUS
 62
         3
100
AcDbLine
 10
289.7406200488
 20
49.9999999999
 30
103.5983738
 11
290.3406200488
 21
49.9999999999
 31
103.5983738
  0
LINE
  5
B0
100
AcDbEntity
  8
CK_LEVEL_1
  6
CONTINUOUS
 62
         3
100
AcDbLine
 10
289.7406200488
 20
61.1499999999
 30
114.7483738
 11
290.3406200488
 21
61.1499999999
 31
114.7483738
  0
ARC
  5
B1
100
AcDbEntity
  8
CK_LEVEL_1
  6
CONTINUOUS
 62
         3
100
AcDbCircle
 10
290.2406200488
 20
36.4999999999
 30
114.7483738
 40
0.5
100
AcDbArc
 50
180.0
 51
270.0
  0
ARC
  5
B2
100
AcDbEntity
  8
CK_LEVEL_1
  6
CONTINUOUS
 62
         3
100
AcDbCircle
 10
290.2406200488
 20
101.2483738
 30
-49.9999999999
 40
0.5
210
0.0
220
-1.0
230
0.0
100
AcDbArc
 50
180.0
 51
270.0
  0
ARC
  5
B3
100
AcDbEntity
  8
CK_LEVEL_1
  6
CONTINUOUS
 62
         3
100
AcDbCircle
 10
-290.2406200488
 20
63.4999999999
 30
-114.7483738
 40
0.5
210
0.0
220
0.0
230
-1.0
100
AcDbArc
 50
0.0
 51
90.0
  0
ARC
  5
B4
100
AcDbEntity
  8
CK_LEVEL_1
  6
CONTINUOUS
 62
         3
100
AcDbCircle
 10
-290.2406200488
 20
128.2483738
 30
49.9999999999
 40
0.5
210
0.0
220
1.0
230
0.0
100
AcDbArc
 50
0.0
 51
90.0
  0
CIRCLE
  5
B5
100
AcDbEntity
  8
CK_LEVEL_1
  6
CONTINUOUS
 62
         3
100
AcDbCircle
 10
49.9999999999
 20
114.7483738
 30
289.8870666582
 40
13.8535533906
210
1.0
220
0.0
230
0.0
  0
LINE
  5
B6
100
AcDbEntity
  8
CK_LEVEL_1
  6
CONTINUOUS
 62
         3
100
AcDbLine
 10
290.2406200488
 20
49.9999999999
 30
128.7483738
 11
291.4406200488
 21
49.9999999999
 31
128.7483738
  0
LINE
  5
B7
100
AcDbEntity
  8
CK_LEVEL_1
  6
CONTINUOUS
 62
         3
100
AcDbLine
 10
290.2406200488
 20
35.9999999999
 30
114.7483738
 11
291.4406200488
 21
35.9999999999
 31
114.7483738
  0
LINE
  5
B8
100
AcDbEntity
  8
CK_LEVEL_1
  6
CONTINUOUS
 62
         3
100
AcDbLine
 10
290.2406200488
 20
49.9999999999
 30
100.7483738
 11
291.4406200488
 21
49.9999999999
 31
100.7483738
  0
LINE
  5
B9
100
AcDbEntity
  8
CK_LEVEL_1
  6
CONTINUOUS
 62
         3
100
AcDbLine
 10
290.2406200488
 20
63.9999999999
 30
114.7483738
 11
291.4406200488
 21
63.9999999999
 31
114.7483738
  0
LINE
  5
BA
100
AcDbEntity
  8
CK_LEVEL_1
  6
CONTINUOUS
 62
         3
100
AcDbLine
 10
289.9406200488
 20
49.9999999999
 30
141.2483738
 11
291.4406200488
 21
49.9999999999
 31
141.2483738
  0
LINE
  5
BB
100
AcDbEntity
  8
CK_LEVEL_1
  6
CONTINUOUS
 62
         3
100
AcDbLine
 10
289.9406200488
 20
23.4999999999
 30
114.7483738
 11
291.4406200488
 21
23.4999999999
 31
114.7483738
  0
LINE
  5
BC
100
AcDbEntity
  8
CK_LEVEL_1
  6
CONTINUOUS
 62
         3
100
AcDbLine
 10
289.9406200488
 20
49.9999999999
 30
88.2483738
 11
291.4406200488
 21
49.9999999999
 31
88.2483738
  0
LINE
  5
BD
100
AcDbEntity
  8
CK_LEVEL_1
  6
CONTINUOUS
 62
         3
100
AcDbLine
 10
289.9406200488
 20
76.4999999999
 30
114.7483738
 11
291.4406200488
 21
76.4999999999
 31
114.7483738
  0
LINE
  5
BE
100
AcDbEntity
  8
CK_LEVEL_1
  6
CONTINUOUS
 62
         3
100
AcDbLine
 10
288.7406200488
 20
49.9999999999
 30
139.5983738
 11
289.9406200488
 21
49.9999999999
 31
139.5983738
  0
LINE
  5
BF
100
AcDbEntity
  8
CK_LEVEL_1
  6
CONTINUOUS
 62
         3
100
AcDbLine
 10
288.7406200488
 20
25.1499999999
 30
114.7483738
 11
289.9406200488
 21
25.1499999999
 31
114.7483738
  0
LINE
  5
C0
100
AcDbEntity
  8
CK_LEVEL_1
  6
CONTINUOUS
 62
         3
100
AcDbLine
 10
288.7406200488
 20
49.9999999999
 30
89.8983738
 11
289.9406200488
 21
49.9999999999
 31
89.8983738
  0
LINE
  5
C1
100
AcDbEntity
  8
CK_LEVEL_1
  6
CONTINUOUS
 62
         3
100
AcDbLine
 10
288.7406200488
 20
74.8499999999
 30
114.7483738
 11
289.9406200488
 21
74.8499999999
 31
114.7483738
  0
ARC
  5
C2
100
AcDbEntity
  8
CK_LEVEL_1
  6
CONTINUOUS
 62
         3
100
AcDbCircle
 10
288.7406200488
 20
24.8499999999
 30
114.7483738
 40
0.3
100
AcDbArc
 50
90.0
 51
180.0
  0
ARC
  5
C3
100
AcDbEntity
  8
CK_LEVEL_1
  6
CONTINUOUS
 62
         3
100
AcDbCircle
 10
288.7406200488
 20
89.5983738
 30
-49.9999999999
 40
0.3
210
0.0
220
-1.0
230
0.0
100
AcDbArc
 50
90.0
 51
180.0
  0
ARC
  5
C4
100
AcDbEntity
  8
CK_LEVEL_1
  6
CONTINUOUS
 62
         3
100
AcDbCircle
 10
-288.7406200488
 20
75.1499999999
 30
-114.7483738
 40
0.3
210
0.0
220
0.0
230
-1.0
100
AcDbArc
 50
270.0
 51
360.0
  0
ARC
  5
C5
100
AcDbEntity
  8
CK_LEVEL_1
  6
CONTINUOUS
 62
         3
100
AcDbCircle
 10
-288.7406200488
 20
139.8983738
 30
49.9999999999
 40
0.3
210
0.0
220
1.0
230
0.0
100
AcDbArc
 50
270.0
 51
360.0
  0
CIRCLE
  5
C6
100
AcDbEntity
  8
CK_LEVEL_1
  6
CONTINUOUS
 62
         3
100
AcDbCircle
 10
49.9999999999
 20
114.7483738
 30
288.5284880145
 40
24.9378679656
210
1.0
220
0.0
230
0.0
  0
LINE
  5
C7
100
AcDbEntity
  8
CK_LEVEL_1
  6
CONTINUOUS
 62
         3
100
AcDbLine
 10
288.4406200488
 20
49.9999999999
 30
144.4983738
 11
292.4406200488
 21
49.9999999999
 31
144.4983738
  0
LINE
  5
C8
100
AcDbEntity
  8
CK_LEVEL_1
  6
CONTINUOUS
 62
         3
100
AcDbLine
 10
288.4406200488
 20
20.2499999999
 30
114.7483738
 11
292.4406200488
 21
20.2499999999
 31
114.7483738
  0
LINE
  5
C9
100
AcDbEntity
  8
CK_LEVEL_1
  6
CONTINUOUS
 62
         3
100
AcDbLine
 10
288.4406200488
 20
49.9999999999
 30
84.9983738
 11
292.4406200488
 21
49.9999999999
 31
84.9983738
  0
LINE
  5
CA
100
AcDbEntity
  8
CK_LEVEL_1
  6
CONTINUOUS
 62
         3
100
AcDbLine
 10
288.4406200488
 20
79.7499999999
 30
114.7483738
 11
292.4406200488
 21
79.7499999999
 31
114.7483738
  0
CIRCLE
  5
CB
100
AcDbEntity
  8
CK_LEVEL_1
  6
CONTINUOUS
 62
         3
100
AcDbCircle
 10
49.9999999999
 20
114.7483738
 30
292.7406200488
 40
29.45
210
1.0
220
0.0
230
0.0
  0
CIRCLE
  5
CC
100
AcDbEntity
  8
CK_LEVEL_1
  6
CONTINUOUS
 62
         3
100
AcDbCircle
 10
49.9999999999
 20
114.7483738
 30
292.4406200488
 40
29.75
210
1.0
220
0.0
230
0.0
  0
CIRCLE
  5
CD
100
AcDbEntity
  8
CK_LEVEL_1
  6
CONTINUOUS
 62
         3
100
AcDbCircle
 10
49.9999999999
 20
114.7483738
 30
292.7406200488
 40
11.15
210
1.0
220
0.0
230
0.0
  0
CIRCLE
  5
CE
100
AcDbEntity
  8
CK_LEVEL_1
  6
CONTINUOUS
 62
         3
100
AcDbCircle
 10
49.9999999999
 20
114.7483738
 30
292.1406200488
 40
11.15
210
1.0
220
0.0
230
0.0
  0
CIRCLE
  5
CF
100
AcDbEntity
  8
CK_LEVEL_1
  6
CONTINUOUS
 62
         3
100
AcDbCircle
 10
49.9999999999
 20
114.7483738
 30
292.1406200488
 40
12.2
210
1.0
220
0.0
230
0.0
  0
CIRCLE
  5
D0
100
AcDbEntity
  8
CK_LEVEL_1
  6
CONTINUOUS
 62
         3
100
AcDbCircle
 10
49.9999999999
 20
114.7483738
 30
291.8406200488
 40
12.5
210
1.0
220
0.0
230
0.0
  0
CIRCLE
  5
D1
100
AcDbEntity
  8
CK_LEVEL_1
  6
CONTINUOUS
 62
         3
100
AcDbCircle
 10
49.9999999999
 20
114.7483738
 30
290.6406200488
 40
12.5
210
1.0
220
0.0
230
0.0
  0
CIRCLE
  5
D2
100
AcDbEntity
  8
CK_LEVEL_1
  6
CONTINUOUS
 62
         3
100
AcDbCircle
 10
49.9999999999
 20
114.7483738
 30
290.3406200488
 40
12.2
210
1.0
220
0.0
230
0.0
  0
CIRCLE
  5
D3
100
AcDbEntity
  8
CK_LEVEL_1
  6
CONTINUOUS
 62
         3
100
AcDbCircle
 10
49.9999999999
 20
114.7483738
 30
290.3406200488
 40
11.15
210
1.0
220
0.0
230
0.0
  0
CIRCLE
  5
D4
100
AcDbEntity
  8
CK_LEVEL_1
  6
CONTINUOUS
 62
         3
100
AcDbCircle
 10
49.9999999999
 20
114.7483738
 30
289.7406200488
 40
11.15
210
1.0
220
0.0
230
0.0
  0
CIRCLE
  5
D5
100
AcDbEntity
  8
CK_LEVEL_1
  6
CONTINUOUS
 62
         3
100
AcDbCircle
 10
49.9999999999
 20
114.7483738
 30
289.7406200488
 40
13.5
210
1.0
220
0.0
230
0.0
  0
CIRCLE
  5
D6
100
AcDbEntity
  8
CK_LEVEL_1
  6
CONTINUOUS
 62
         3
100
AcDbCircle
 10
49.9999999999
 20
114.7483738
 30
290.2406200488
 40
14.0
210
1.0
220
0.0
230
0.0
  0
CIRCLE
  5
D7
100
AcDbEntity
  8
CK_LEVEL_1
  6
CONTINUOUS
 62
         3
100
AcDbCircle
 10
49.9999999999
 20
114.7483738
 30
291.4406200488
 40
14.0
210
1.0
220
0.0
230
0.0
  0
CIRCLE
  5
D8
100
AcDbEntity
  8
CK_LEVEL_1
  6
CONTINUOUS
 62
         3
100
AcDbCircle
 10
49.9999999999
 20
114.7483738
 30
291.4406200488
 40
26.5
210
1.0
220
0.0
230
0.0
  0
CIRCLE
  5
D9
100
AcDbEntity
  8
CK_LEVEL_1
  6
CONTINUOUS
 62
         3
100
AcDbCircle
 10
49.9999999999
 20
114.7483738
 30
289.9406200488
 40
26.5
210
1.0
220
0.0
230
0.0
  0
CIRCLE
  5
DA
100
AcDbEntity
  8
CK_LEVEL_1
  6
CONTINUOUS
 62
         3
100
AcDbCircle
 10
49.9999999999
 20
114.7483738
 30
289.9406200488
 40
24.85
210
1.0
220
0.0
230
0.0
  0
CIRCLE
  5
DB
100
AcDbEntity
  8
CK_LEVEL_1
  6
CONTINUOUS
 62
         3
100
AcDbCircle
 10
49.9999999999
 20
114.7483738
 30
288.7406200488
 40
24.85
210
1.0
220
0.0
230
0.0
  0
CIRCLE
  5
DC
100
AcDbEntity
  8
CK_LEVEL_1
  6
CONTINUOUS
 62
         3
100
AcDbCircle
 10
49.9999999999
 20
114.7483738
 30
288.4406200488
 40
25.15
210
1.0
220
0.0
230
0.0
  0
CIRCLE
  5
DD
100
AcDbEntity
  8
CK_LEVEL_1
  6
CONTINUOUS
 62
         3
100
AcDbCircle
 10
49.9999999999
 20
114.7483738
 30
288.4406200488
 40
29.75
210
1.0
220
0.0
230
0.0
  0
ENDBLK
  5
DE
100
AcDbEntity
  8
0
  6
CONTINUOUS
100
AcDbBlockEnd
  0
BLOCK
  5
E2
100
AcDbEntity
  8
0
100
AcDbBlockBegin
  2
CKCOLL200
 70
        64
 10
0.0
 20
0.0
 30
0.0
  3
CKCOLL200
  1

  0
LINE
  5
E3
100
AcDbEntity
  8
CK_LEVEL_1
  6
CONTINUOUS
 62
         3
100
AcDbLine
 10
292.7406200488
 20
49.9999999999
 30
100.7483738
 11
289.7406200488
 21
49.9999999999
 31
100.7483738
  0
LINE
  5
E4
100
AcDbEntity
  8
CK_LEVEL_1
  6
CONTINUOUS
 62
         3
100
AcDbLine
 10
292.7406200488
 20
35.9999999999
 30
114.7483738
 11
289.7406200488
 21
35.9999999999
 31
114.7483738
  0
LINE
  5
E5
100
AcDbEntity
  8
CK_LEVEL_1
  6
CONTINUOUS
 62
         3
100
AcDbLine
 10
292.7406200488
 20
49.9999999999
 30
128.7483738
 11
289.7406200488
 21
49.9999999999
 31
128.7483738
  0
LINE
  5
E6
100
AcDbEntity
  8
CK_LEVEL_1
  6
CONTINUOUS
 62
         3
100
AcDbLine
 10
292.7406200488
 20
63.9999999999
 30
114.7483738
 11
289.7406200488
 21
63.9999999999
 31
114.7483738
  0
CIRCLE
  5
E7
100
AcDbEntity
  8
CK_LEVEL_1
  6
CONTINUOUS
 62
         3
100
AcDbCircle
 10
49.9999999999
 20
114.7483738
 30
289.7406200488
 40
14.0
210
1.0
220
0.0
230
0.0
  0
CIRCLE
  5
E8
100
AcDbEntity
  8
CK_LEVEL_1
  6
CONTINUOUS
 62
         3
100
AcDbCircle
 10
49.9999999999
 20
114.7483738
 30
292.7406200488
 40
14.0
210
1.0
220
0.0
230
0.0
  0
ENDBLK
  5
E9
100
AcDbEntity
  8
0
  6
CONTINUOUS
100
AcDbBlockEnd
  0
ENDSEC
  0
SECTION
  2
ENTITIES
  0
INSERT
  5
2C
100
AcDbEntity
  8
0
  6
CONTINUOUS
100
AcDbBlockReference
  2
CKCOLL12
 10
0.0
 20
0.0
 30
0.0
  0
INSERT
  5
61
100
AcDbEntity
  8
0
  6
CONTINUOUS
100
AcDbBlockReference
  2
CKCOLL18
 10
0.0
 20
0.0
 30
0.0
  0
INSERT
  5
93
100
AcDbEntity
  8
0
  6
CONTINUOUS
100
AcDbBlockReference
  2
CKCOLL77
 10
0.0
 20
0.0
 30
0.0
  0
INSERT
  5
E0
100
AcDbEntity
  8
0
  6
CONTINUOUS
100
AcDbBlockReference
  2
CKCOLL125
 10
0.0
 20
0.0
 30
0.0
  0
INSERT
  5
EB
100
AcDbEntity
  8
0
  6
CONTINUOUS
100
AcDbBlockReference
  2
CKCOLL200
 10
0.0
 20
0.0
 30
0.0
  0
ENDSEC
  0
SECTION
  2
OBJECTS
  0
DICTIONARY
  5
19
100
AcDbDictionary
  3
ACAD_GROUP
350
1A
  3
ACAD_MLINESTYLE
350
1B
  0
DICTIONARY
  5
1A
102
{ACAD_REACTORS
330
19
102
}
100
AcDbDictionary
  0
DICTIONARY
  5
1B
102
{ACAD_REACTORS
330
19
102
}
100
AcDbDictionary
  3
STANDARD
350
1C
  0
MLINESTYLE
  5
1C
102
{ACAD_REACTORS
330
1B
102
}
100
AcDbMlineStyle
  2
STANDARD
 70
         0
  3

 62
         0
 51
90.0
 52
90.0
 71
         2
 49
0.5
 62
       256
  6
BYLAYER
 49
-0.5
 62
       256
  6
BYLAYER
  0
ENDSEC
  0
EOF
