  0
SECTION
  2
HEADER
  9
$ACADVER
  1
AC1014
  9
$ACADMAINTVER
 70
         0
  9
$DWGCODEPAGE
  3
DOS850
  9
$INSBASE
 10
0.0
 20
0.0
 30
0.0
  9
$EXTMIN
 10
-277.3272865617
 20
-105.77173393
 30
0.0
  9
$EXTMAX
 10
100.4742359758
 20
150.4309165852
 30
0.0
  9
$LIMMIN
 10
0.0
 20
0.0
  9
$LIMMAX
 10
0.0
 20
0.0
  9
$ORTHOMODE
 70
         0
  9
$REGENMODE
 70
         1
  9
$FILLMODE
 70
         1
  9
$QTEXTMODE
 70
         0
  9
$MIRRTEXT
 70
         1
  9
$DRAGMODE
 70
         2
  9
$LTSCALE
 40
1.0
  9
$OSMODE
 70
         0
  9
$ATTMODE
 70
         1
  9
$TEXTSIZE
 40
5.0
  9
$TRACEWID
 40
0.05
  9
$TEXTSTYLE
  7
STANDARD
  9
$CLAYER
  8
0
  9
$CELTYPE
  6
CONTINUOUS
  9
$CECOLOR
 62
         5
  9
$CELTSCALE
 40
1.0
  9
$DELOBJ
 70
         1
  9
$DISPSILH
 70
         0
  9
$DIMSCALE
 40
1.0
  9
$DIMASZ
 40
0.18
  9
$DIMEXO
 40
0.0625
  9
$DIMDLI
 40
0.38
  9
$DIMRND
 40
0.0
  9
$DIMDLE
 40
0.0
  9
$DIMEXE
 40
0.25
  9
$DIMTP
 40
0.01
  9
$DIMTM
 40
-0.01
  9
$DIMTXT
 40
5.0
  9
$DIMCEN
 40
0.09
  9
$DIMTSZ
 40
0.0
  9
$DIMTOL
 70
         0
  9
$DIMLIM
 70
         0
  9
$DIMTIH
 70
         1
  9
$DIMTOH
 70
         1
  9
$DIMSE1
 70
         0
  9
$DIMSE2
 70
         0
  9
$DIMTAD
 70
         0
  9
$DIMZIN
 70
         0
  9
$DIMBLK
  1

  9
$DIMASO
 70
         1
  9
$DIMSHO
 70
         1
  9
$DIMPOST
  1

  9
$DIMAPOST
  1

  9
$DIMALT
 70
         0
  9
$DIMALTD
 70
         2
  9
$DIMALTF
 40
25.4
  9
$DIMLFAC
 40
1.0
  9
$DIMTOFL
 70
         0
  9
$DIMTVP
 40
0.0
  9
$DIMTIX
 70
         0
  9
$DIMSOXD
 70
         0
  9
$DIMSAH
 70
         0
  9
$DIMBLK1
  1

  9
$DIMBLK2
  1

  9
$DIMSTYLE
  2
STANDARD
  9
$DIMCLRD
 70
         0
  9
$DIMCLRE
 70
         0
  9
$DIMCLRT
 70
         5
  9
$DIMTFAC
 40
1.0
  9
$DIMGAP
 40
0.09
  9
$DIMJUST
 70
         0
  9
$DIMSD1
 70
         0
  9
$DIMSD2
 70
         0
  9
$DIMTOLJ
 70
         1
  9
$DIMTZIN
 70
         0
  9
$DIMALTZ
 70
         0
  9
$DIMALTTZ
 70
         0
  9
$DIMFIT
 70
         3
  9
$DIMUPT
 70
         0
  9
$DIMUNIT
 70
         2
  9
$DIMDEC
 70
         4
  9
$DIMTDEC
 70
         4
  9
$DIMALTU
 70
         2
  9
$DIMALTTD
 70
         2
  9
$DIMTXSTY
  7
STANDARD
  9
$DIMAUNIT
 70
         0
  9
$LUNITS
 70
         2
  9
$LUPREC
 70
        10
  9
$SKETCHINC
 40
0.1
  9
$FILLETRAD
 40
0.0
  9
$AUNITS
 70
         0
  9
$AUPREC
 70
         0
  9
$MENU
  1
acad
  9
$ELEVATION
 40
0.0
  9
$PELEVATION
 40
0.0
  9
$THICKNESS
 40
0.0
  9
$LIMCHECK
 70
         0
  9
$BLIPMODE
 70
         1
  9
$CHAMFERA
 40
0.0
  9
$CHAMFERB
 40
0.0
  9
$CHAMFERC
 40
0.0
  9
$CHAMFERD
 40
0.0
  9
$SKPOLY
 70
         0
  9
$TDCREATE
 40
0.000000000
  9
$TDUPDATE
 40
0.000000000
  9
$TDINDWG
 40
0.0000000000
  9
$TDUSRTIMER
 40
0.0000000000
  9
$USRTIMER
 70
         1
  9
$ANGBASE
 50
0.0
  9
$ANGDIR
 70
         0
  9
$PDMODE
 70
         2
  9
$PDSIZE
 40
0.0
  9
$PLINEWID
 40
0.0
  9
$COORDS
 70
         0
  9
$SPLFRAME
 70
         0
  9
$SPLINETYPE
 70
         6
  9
$SPLINESEGS
 70
         8
  9
$ATTDIA
 70
         0
  9
$ATTREQ
 70
         1
  9
$HANDLING
 70
         1
  9
$HANDSEED
  5
587
  9
$SURFTAB1
 70
         6
  9
$SURFTAB2
 70
         6
  9
$SURFTYPE
 70
         6
  9
$SURFU
 70
         6
  9
$SURFV
 70
         6
  9
$UCSNAME
  2

  9
$UCSORG
 10
0.0
 20
0.0
 30
0.0
  9
$UCSXDIR
 10
1.0
 20
0.0
 30
0.0
  9
$UCSYDIR
 10
0.0
 20
1.0
 30
0.0
  9
$PUCSNAME
  2

  9
$PUCSORG
 10
0.0
 20
0.0
 30
0.0
  9
$PUCSXDIR
 10
1.0
 20
0.0
 30
0.0
  9
$PUCSYDIR
 10
0.0
 20
1.0
 30
0.0
  9
$USERI1
 70
         0
  9
$USERI2
 70
         0
  9
$USERI3
 70
         0
  9
$USERI4
 70
         0
  9
$USERI5
 70
         0
  9
$USERR1
 40
0.0
  9
$USERR2
 40
0.0
  9
$USERR3
 40
0.0
  9
$USERR4
 40
0.0
  9
$USERR5
 40
0.0
  9
$WORLDVIEW
 70
         1
  9
$SHADEDGE
 70
         3
  9
$SHADEDIF
 70
        70
  9
$TILEMODE
 70
         1
  9
$MAXACTVP
 70
        16
  9
$PINSBASE
 10
0.0
 20
0.0
 30
0.0
  9
$PLIMCHECK
 70
         0
  9
$PEXTMIN
 10
1.0000000000E+20
 20
1.0000000000E+20
 30
1.0000000000E+20
  9
$PEXTMAX
 10
-1.0000000000E+20
 20
-1.0000000000E+20
 30
-1.0000000000E+20
  9
$PLIMMIN
 10
0.0
 20
0.0
  9
$PLIMMAX
 10
12.0
 20
9.0
  9
$UNITMODE
 70
         0
  9
$VISRETAIN
 70
         0
  9
$PLINEGEN
 70
         1
  9
$PSLTSCALE
 70
         0
  9
$TREEDEPTH
 70
      3020
  9
$PICKSTYLE
 70
         1
  9
$CMLSTYLE
  2
STANDARD
  9
$CMLJUST
 70
         0
  9
$CMLSCALE
 40
1.0
  9
$PROXYGRAPHICS
 70
         0
  9
$MEASUREMENT
 70
         0
  0
ENDSEC
  0
SECTION
  2
CLASSES
  0
CLASS
  1
LWPOLYLINE
  2
AcDbPolyline
  3
"AutoCAD"
 90
        0
280
         0
281
         1
  0
CLASS
  1
IMAGE
  2
AcDbRasterImage
  3
ISM
 90
      127
280
         0
281
         1
  0
CLASS
  1
OLE2FRAME
  2
AcDbOle2Frame
  3
""
 90
        0
280
         0
281
         1
  0
CLASS
  1
HATCH
  2
AcDbHatch
  3
"ACAD_SEDONA"
 90
        0
280
         0
281
         1
  0
CLASS
  1
DICTIONARYVAR
  2
AcDbDictionaryVar
  3
"AutoCAD"
 90
        0
280
         0
281
         0
  0
CLASS
  1
RASTERVARIABLES
  2
AcDbRasterVariables
  3
ISM
 90
        0
280
         0
281
         0
  0
CLASS
  1
IMAGEDEF
  2
AcDbRasterImageDef
  3
ISM
 90
        0
280
         0
281
         0
  0
CLASS
  1
IMAGEDEF_REACTOR
  2
AcDbRasterImageDefReactor
  3
ISM
 90
        1
280
         0
281
         0
  0
CLASS
  1
IDBUFFER
  2
AcDbIdBuffer
  3
"Acad"
 90
        0
280
         0
281
         0
  0
CLASS
  1
SPATIAL_FILTER
  2
AcDbSpatialFilter
  3
"Acad"
 90
        0
280
         0
281
         0
  0
CLASS
  1
XRECORD
  2
AcDbXrecord
  3
"<Built In>"
 90
        0
280
         0
281
         0
  0
CLASS
  1
SORTENTSTABLE
  2
AcDbSortentsTable
  3
"AutoCAD"
 90
        0
280
         0
281
         0
  0
CLASS
  1
LAYER_INDEX
  2
AcDbLayerIndex
  3
"Acad"
 90
        0
280
         0
281
         0
  0
CLASS
  1
SPATIAL_INDEX
  2
AcDbSpatialIndex
  3
"Acad"
 90
        0
280
         0
281
         0
  0
CLASS
  1
OBJECT_PTR
  2
CAseDLPNTableRecord
  3
"ASE-LPNTableRecord"
 90
        1
280
         0
281
         0
  0
CLASS
  1
LAYOUT
  2
AcDbLayout
  3
"AutoCAD 2000"
 90
        1
280
         0
281
         0
  0
CLASS
  1
PLOTSETTINGS
  2
AcDbPlotSettings
  3
"AutoCAD 2000"
 90
        1
280
         0
281
         0
  0
CLASS
  1
ACDBDICTIONARYWDFLT
  2
AcDbDictionaryWithDefault
  3
"AutoCAD 2000"
 90
        1
280
         0
281
         0
  0
CLASS
  1
ACDBPLACEHOLDER
  2
AcDbPlaceHolder
  3
"AutoCAD 2000"
 90
        1
280
         0
281
         0
  0
CLASS
  1
VBA_PROJECT
  2
AcDbVbaProject
  3
"acadvba"
 90
        1
280
         0
281
         0
  0
CLASS
  1
WIPEOUT
  2
AcDbWipeout
  3
WipeOut|AutoCAD Express Tool|expresstools@autodesk.com
 90
      127
280
         0
281
         1
  0
CLASS
  1
WIPEOUTVARIABLES
  2
AcDbWipeoutVariables
  3
WipeOut|AutoCAD Express Tool|expresstools@autodesk.com
 90
        0
280
         0
281
         0
  0
CLASS
  1
RTEXT
  2
RText
  3
RText|AutoCAD Express Tool|expresstools@autodesk.com
 90
        0
280
         0
281
         1
  0
CLASS
  1
ARCALIGNEDTEXT
  2
AcDbArcAlignedText
  3
ATEXT|AutoCAD Express Tool|expresstools@autodesk.com
 90
        0
280
         0
281
         1
  0
ENDSEC
  0
SECTION
  2
TABLES
  0
TABLE
  2
VPORT
  5
7
100
AcDbSymbolTable
 70
         1
  0
VPORT
  5
15
100
AcDbSymbolTableRecord
100
AcDbViewportTableRecord
  2
*ACTIVE
 70
         0
 10
0.0
 20
0.0
 11
1.0
 21
1.0
 12
-88.426525293
 22
22.3295913276
 13
0.0
 23
0.0
 14
1.0
 24
1.0
 15
0.0
 25
0.0
 16
0.0
 26
0.0
 36
1.0
 17
0.0
 27
0.0
 37
0.0
 40
256.2026505152
 41
1.474619883
 42
50.0
 43
0.0
 44
0.0
 50
0.0
 51
0.0
 71
         0
 72
       100
 73
         1
 74
         1
 75
         0
 76
         0
 77
         0
 78
         0
  0
ENDTAB
  0
TABLE
  2
LTYPE
  5
4
100
AcDbSymbolTable
 70
         6
  0
LTYPE
  5
11
100
AcDbSymbolTableRecord
100
AcDbLinetypeTableRecord
  2
BYBLOCK
 70
        64
  3

 72
        65
 73
         0
 40
0.0
  0
LTYPE
  5
12
100
AcDbSymbolTableRecord
100
AcDbLinetypeTableRecord
  2
BYLAYER
 70
        64
  3

 72
        65
 73
         0
 40
0.0
  0
LTYPE
  5
13
100
AcDbSymbolTableRecord
100
AcDbLinetypeTableRecord
  2
CONTINUOUS
 70
        64
  3
Solid line
 72
        65
 73
         0
 40
0.0
  0
LTYPE
  5
1D
100
AcDbSymbolTableRecord
100
AcDbLinetypeTableRecord
  2
DASHED
 70
        64
  3
_ _ _ _ _ _ _ _ _ _ _ _ _ _ _ _
 72
        65
 73
         2
 40
0.2
 49
0.1
 74
         0
 49
-0.1
 74
         0
  0
LTYPE
  5
1E
100
AcDbSymbolTableRecord
100
AcDbLinetypeTableRecord
  2
CENTER
 70
        64
  3
___ _ ___ _ ___ _ ___ _ ___ _ ___ _ ___ _ ___ _
 72
        65
 73
         4
 40
0.95
 49
0.625
 74
         0
 49
-0.125
 74
         0
 49
0.075
 74
         0
 49
-0.125
 74
         0
  0
LTYPE
  5
1F
100
AcDbSymbolTableRecord
100
AcDbLinetypeTableRecord
  2
PHANTOM
 70
        64
  3
______  __  __  ______  __  __  ______  __  __  
 72
        65
 73
         6
 40
1.025
 49
0.625
 74
         0
 49
-0.125
 74
         0
 49
0.075
 74
         0
 49
-0.125
 74
         0
 49
0.075
 74
         0
 49
-0.125
 74
         0
  0
ENDTAB
  0
TABLE
  2
LAYER
  5
2
100
AcDbSymbolTable
 70
         4
  0
LAYER
  5
14
100
AcDbSymbolTableRecord
100
AcDbLayerTableRecord
  2
0
 70
         0
 62
         7
  6
CONTINUOUS
  0
LAYER
  5
21
100
AcDbSymbolTableRecord
100
AcDbLayerTableRecord
  2
SOLIDO_ESTERNO
 70
         1
 62
         7
  6
CONTINUOUS
  0
LAYER
  5
22
100
AcDbSymbolTableRecord
100
AcDbLayerTableRecord
  2
LAVORAZIONI
 70
         1
 62
         7
  6
CONTINUOUS
  0
LAYER
  5
23
100
AcDbSymbolTableRecord
100
AcDbLayerTableRecord
  2
SOLIDO_FINALE
 70
         0
 62
         7
  6
CONTINUOUS
  0
ENDTAB
  0
TABLE
  2
STYLE
  5
3
100
AcDbSymbolTable
 70
         1
  0
STYLE
  5
17
100
AcDbSymbolTableRecord
100
AcDbTextStyleTableRecord
  2
STANDARD
 70
         0
 40
0.0
 41
1.0
 50
0.0
 71
         0
 42
0.0
  3
txt
  4

  0
ENDTAB
  0
TABLE
  2
VIEW
  5
5
100
AcDbSymbolTable
 70
         0
  0
ENDTAB
  0
TABLE
  2
UCS
  5
6
100
AcDbSymbolTable
 70
         1
  0
UCS
  5
20
100
AcDbSymbolTableRecord
100
AcDbUCSTableRecord
  2
CK_VIEW_1
 70
         0
 10
0.0
 20
0.0
 30
1.0
 11
1.0
 21
0.0
 31
0.0
 12
0.0
 22
1.0
 32
0.0
  0
ENDTAB
  0
TABLE
  2
APPID
  5
8
100
AcDbSymbolTable
 70
         1
  0
APPID
  5
16
100
AcDbSymbolTableRecord
100
AcDbRegAppTableRecord
  2
ACAD
 70
         0
  0
ENDTAB
  0
TABLE
  2
DIMSTYLE
  5
9
100
AcDbSymbolTable
 70
         1
  0
DIMSTYLE
105
18
100
AcDbSymbolTableRecord
100
AcDbDimStyleTableRecord
  2
STANDARD
 70
         0
  3

  4

  5

  6

  7

 40
1.0
 41
0.18
 42
0.0625
 43
0.38
 44
0.18
 45
0.0
 46
0.0
 47
0.0
 48
0.0
 71
         0
 72
         0
 73
         1
 74
         1
 75
         0
 76
         0
 77
         0
 78
         0
140
0.18
141
0.09
142
0.0
143
25.4
144
1.0
145
0.0
146
1.0
147
0.09
170
         0
171
         2
172
         0
173
         0
174
         0
175
         0
176
         0
177
         0
178
         0
270
         2
271
         4
272
         4
273
         2
274
         2
275
         0
280
         0
281
         0
282
         0
283
         1
284
         0
285
         0
286
         0
287
         0
288
         0
340
17
  0
ENDTAB
  0
TABLE
  2
BLOCK_RECORD
  5
1
100
AcDbSymbolTable
 70
         6
  0
BLOCK_RECORD
  5
A
100
AcDbSymbolTableRecord
100
AcDbBlockTableRecord
  2
*MODEL_SPACE
  0
BLOCK_RECORD
  5
B
100
AcDbSymbolTableRecord
100
AcDbBlockTableRecord
  2
*PAPER_SPACE
  0
BLOCK_RECORD
  5
24
100
AcDbSymbolTableRecord
100
AcDbBlockTableRecord
  2
CKCOLL4857
  0
BLOCK_RECORD
  5
4C
100
AcDbSymbolTableRecord
100
AcDbBlockTableRecord
  2
CKCOLL1862
  0
BLOCK_RECORD
  5
526
100
AcDbSymbolTableRecord
100
AcDbBlockTableRecord
  2
CKCOLL1531
  0
BLOCK_RECORD
  5
54A
100
AcDbSymbolTableRecord
100
AcDbBlockTableRecord
  2
CKCOLL4911
  0
BLOCK_RECORD
  5
571
100
AcDbSymbolTableRecord
100
AcDbBlockTableRecord
  2
CKCOLL4919
  0
BLOCK_RECORD
  5
57C
100
AcDbSymbolTableRecord
100
AcDbBlockTableRecord
  2
CKCOLL5553
  0
ENDTAB
  0
ENDSEC
  0
SECTION
  2
BLOCKS
  0
BLOCK
  5
D
100
AcDbEntity
  8
0
100
AcDbBlockBegin
  2
*MODEL_SPACE
 70
         0
 10
0.0
 20
0.0
 30
0.0
  3
*MODEL_SPACE
  1

  0
ENDBLK
  5
E
100
AcDbEntity
  8
0
100
AcDbBlockEnd
  0
BLOCK
  5
F
100
AcDbEntity
 67
         1
  8
0
100
AcDbBlockBegin
  2
*PAPER_SPACE
 70
         0
 10
0.0
 20
0.0
 30
0.0
  3
*PAPER_SPACE
  1

  0
ENDBLK
  5
10
100
AcDbEntity
 67
         1
  8
0
100
AcDbBlockEnd
  0
BLOCK
  5
25
100
AcDbEntity
  8
0
100
AcDbBlockBegin
  2
CKCOLL4857
 70
        64
 10
0.0
 20
0.0
 30
0.0
  3
CKCOLL4857
  1

  0
CIRCLE
  5
26
100
AcDbEntity
  8
SOLIDO_FINALE
  6
CONTINUOUS
 62
        15
100
AcDbCircle
 10
-18.9513489421
 20
-66.2679693622
 30
0.0
 40
15.75
210
0.0
220
0.0
230
-1.0
  0
CIRCLE
  5
27
100
AcDbEntity
  8
SOLIDO_FINALE
  6
CONTINUOUS
 62
        15
100
AcDbCircle
 10
18.9513489421
 20
-66.2679693622
 30
4.0
 40
15.75
  0
LINE
  5
28
100
AcDbEntity
  8
SOLIDO_FINALE
  6
CONTINUOUS
 62
        15
100
AcDbLine
 10
-56.0486510579
 20
-41.2679693622
 30
0.0
 11
43.9513489421
 21
-41.2679693622
 31
0.0
  0
LINE
  5
29
100
AcDbEntity
  8
SOLIDO_FINALE
  6
CONTINUOUS
 62
        15
100
AcDbLine
 10
-56.0486510579
 20
-91.2679693622
 30
0.0
 11
-56.0486510579
 21
-41.2679693622
 31
0.0
  0
LINE
  5
2A
100
AcDbEntity
  8
SOLIDO_FINALE
  6
CONTINUOUS
 62
        15
100
AcDbLine
 10
43.9513489421
 20
-91.2679693622
 30
0.0
 11
-56.0486510579
 21
-91.2679693622
 31
0.0
  0
LINE
  5
2B
100
AcDbEntity
  8
SOLIDO_FINALE
  6
CONTINUOUS
 62
        15
100
AcDbLine
 10
43.9513489421
 20
-41.2679693622
 30
0.0
 11
43.9513489421
 21
-91.2679693622
 31
0.0
  0
LINE
  5
2C
100
AcDbEntity
  8
SOLIDO_FINALE
  6
CONTINUOUS
 62
        15
100
AcDbLine
 10
-56.0486510579
 20
-41.2679693622
 30
-12.0
 11
-56.0486510579
 21
-91.2679693622
 31
-12.0
  0
LINE
  5
2D
100
AcDbEntity
  8
SOLIDO_FINALE
  6
CONTINUOUS
 62
        15
100
AcDbLine
 10
-56.0486510579
 20
-91.2679693622
 30
0.0
 11
-56.0486510579
 21
-91.2679693622
 31
-12.0
  0
LINE
  5
2E
100
AcDbEntity
  8
SOLIDO_FINALE
  6
CONTINUOUS
 62
        15
100
AcDbLine
 10
-56.0486510579
 20
-41.2679693622
 30
0.0
 11
-56.0486510579
 21
-41.2679693622
 31
-12.0
  0
LINE
  5
2F
100
AcDbEntity
  8
SOLIDO_FINALE
  6
CONTINUOUS
 62
        15
100
AcDbLine
 10
-56.0486510579
 20
-91.2679693622
 30
-12.0
 11
43.9513489421
 21
-91.2679693622
 31
-12.0
  0
LINE
  5
30
100
AcDbEntity
  8
SOLIDO_FINALE
  6
CONTINUOUS
 62
        15
100
AcDbLine
 10
43.9513489421
 20
-91.2679693622
 30
0.0
 11
43.9513489421
 21
-91.2679693622
 31
-12.0
  0
LINE
  5
31
100
AcDbEntity
  8
SOLIDO_FINALE
  6
CONTINUOUS
 62
        15
100
AcDbLine
 10
43.9513489421
 20
-91.2679693622
 30
-12.0
 11
43.9513489421
 21
-41.2679693622
 31
-12.0
  0
LINE
  5
32
100
AcDbEntity
  8
SOLIDO_FINALE
  6
CONTINUOUS
 62
        15
100
AcDbLine
 10
43.9513489421
 20
-41.2679693622
 30
0.0
 11
43.9513489421
 21
-41.2679693622
 31
-12.0
  0
LINE
  5
33
100
AcDbEntity
  8
SOLIDO_FINALE
  6
CONTINUOUS
 62
        15
100
AcDbLine
 10
43.9513489421
 20
-41.2679693622
 30
-12.0
 11
-56.0486510579
 21
-41.2679693622
 31
-12.0
  0
LINE
  5
34
100
AcDbEntity
  8
SOLIDO_FINALE
  6
CONTINUOUS
 62
        15
100
AcDbLine
 10
-21.8986510579
 20
-66.2679693622
 30
0.0
 11
-21.8986510579
 21
-66.2679693622
 31
-11.5
  0
LINE
  5
35
100
AcDbEntity
  8
SOLIDO_FINALE
  6
CONTINUOUS
 62
        15
100
AcDbLine
 10
-31.0486510579
 20
-75.4179693622
 30
0.0
 11
-31.0486510579
 21
-75.4179693622
 31
-11.5
  0
LINE
  5
36
100
AcDbEntity
  8
SOLIDO_FINALE
  6
CONTINUOUS
 62
        15
100
AcDbLine
 10
-40.1986510579
 20
-66.2679693622
 30
0.0
 11
-40.1986510579
 21
-66.2679693622
 31
-11.5
  0
LINE
  5
37
100
AcDbEntity
  8
SOLIDO_FINALE
  6
CONTINUOUS
 62
        15
100
AcDbLine
 10
-31.0486510579
 20
-57.1179693622
 30
0.0
 11
-31.0486510579
 21
-57.1179693622
 31
-11.5
  0
LINE
  5
38
100
AcDbEntity
  8
SOLIDO_FINALE
  6
CONTINUOUS
 62
        15
100
AcDbLine
 10
18.9513489421
 20
-53.4679693622
 30
3.25
 11
18.9513489421
 21
-52.7179693622
 31
4.0
  0
LINE
  5
39
100
AcDbEntity
  8
SOLIDO_FINALE
  6
CONTINUOUS
 62
        15
100
AcDbLine
 10
6.1513489421
 20
-66.2679693622
 30
3.25
 11
5.4013489421
 21
-66.2679693622
 31
4.0
  0
LINE
  5
3A
100
AcDbEntity
  8
SOLIDO_FINALE
  6
CONTINUOUS
 62
        15
100
AcDbLine
 10
18.9513489421
 20
-79.0679693622
 30
3.25
 11
18.9513489421
 21
-79.8179693622
 31
4.0
  0
LINE
  5
3B
100
AcDbEntity
  8
SOLIDO_FINALE
  6
CONTINUOUS
 62
        15
100
AcDbLine
 10
31.7513489421
 20
-66.2679693622
 30
3.25
 11
32.5013489421
 21
-66.2679693622
 31
4.0
  0
LINE
  5
3C
100
AcDbEntity
  8
SOLIDO_FINALE
  6
CONTINUOUS
 62
        15
100
AcDbLine
 10
18.9513489421
 20
-53.4679693622
 30
0.0
 11
18.9513489421
 21
-53.4679693622
 31
3.25
  0
LINE
  5
3D
100
AcDbEntity
  8
SOLIDO_FINALE
  6
CONTINUOUS
 62
        15
100
AcDbLine
 10
6.1513489421
 20
-66.2679693622
 30
0.0
 11
6.1513489421
 21
-66.2679693622
 31
3.25
  0
LINE
  5
3E
100
AcDbEntity
  8
SOLIDO_FINALE
  6
CONTINUOUS
 62
        15
100
AcDbLine
 10
18.9513489421
 20
-79.0679693622
 30
0.0
 11
18.9513489421
 21
-79.0679693622
 31
3.25
  0
LINE
  5
3F
100
AcDbEntity
  8
SOLIDO_FINALE
  6
CONTINUOUS
 62
        15
100
AcDbLine
 10
31.7513489421
 20
-66.2679693622
 30
0.0
 11
31.7513489421
 21
-66.2679693622
 31
3.25
  0
LINE
  5
40
100
AcDbEntity
  8
SOLIDO_FINALE
  6
CONTINUOUS
 62
        15
100
AcDbLine
 10
18.9513489421
 20
-50.5179693622
 30
4.0
 11
18.9513489421
 21
-50.5179693622
 31
0.0
  0
LINE
  5
41
100
AcDbEntity
  8
SOLIDO_FINALE
  6
CONTINUOUS
 62
        15
100
AcDbLine
 10
34.7013489421
 20
-66.2679693622
 30
4.0
 11
34.7013489421
 21
-66.2679693622
 31
0.0
  0
LINE
  5
42
100
AcDbEntity
  8
SOLIDO_FINALE
  6
CONTINUOUS
 62
        15
100
AcDbLine
 10
18.9513489421
 20
-82.0179693622
 30
4.0
 11
18.9513489421
 21
-82.0179693622
 31
0.0
  0
LINE
  5
43
100
AcDbEntity
  8
SOLIDO_FINALE
  6
CONTINUOUS
 62
        15
100
AcDbLine
 10
3.2013489421
 20
-66.2679693622
 30
4.0
 11
3.2013489421
 21
-66.2679693622
 31
0.0
  0
CIRCLE
  5
44
100
AcDbEntity
  8
SOLIDO_FINALE
  6
CONTINUOUS
 62
        15
100
AcDbCircle
 10
-31.0486510579
 20
-66.2679693622
 30
-11.5
 40
9.15
  0
CIRCLE
  5
45
100
AcDbEntity
  8
SOLIDO_FINALE
  6
CONTINUOUS
 62
        15
100
AcDbCircle
 10
-31.0486510579
 20
-66.2679693622
 30
0.0
 40
9.15
  0
CIRCLE
  5
46
100
AcDbEntity
  8
SOLIDO_FINALE
  6
CONTINUOUS
 62
        15
100
AcDbCircle
 10
-18.9513489421
 20
-66.2679693622
 30
-4.0
 40
13.55
210
0.0
220
0.0
230
-1.0
  0
CIRCLE
  5
47
100
AcDbEntity
  8
SOLIDO_FINALE
  6
CONTINUOUS
 62
        15
100
AcDbCircle
 10
18.9513489421
 20
-66.2679693622
 30
3.25
 40
12.8
  0
CIRCLE
  5
48
100
AcDbEntity
  8
SOLIDO_FINALE
  6
CONTINUOUS
 62
        15
100
AcDbCircle
 10
18.9513489421
 20
-66.2679693622
 30
0.0
 40
12.8
  0
ENDBLK
  5
49
100
AcDbEntity
  8
0
  6
CONTINUOUS
100
AcDbBlockEnd
  0
BLOCK
  5
4D
100
AcDbEntity
  8
0
100
AcDbBlockBegin
  2
CKCOLL1862
 70
        64
 10
0.0
 20
0.0
 30
0.0
  3
CKCOLL1862
  1

  0
CIRCLE
  5
4E
100
AcDbEntity
  8
SOLIDO_FINALE
  6
CONTINUOUS
 62
        15
100
AcDbCircle
 10
18.9513489421
 20
-66.2679693622
 30
59.9
 40
13.5
  0
CIRCLE
  5
4F
100
AcDbEntity
  8
SOLIDO_FINALE
  6
CONTINUOUS
 62
        15
100
AcDbCircle
 10
18.9513489421
 20
-66.2679693622
 30
58.9
 40
14.5
  0
CIRCLE
  5
50
100
AcDbEntity
  8
SOLIDO_FINALE
  6
CONTINUOUS
 62
        15
100
AcDbCircle
 10
18.9513489421
 20
-66.2679693622
 30
12.5650635095
 40
14.5
  0
CIRCLE
  5
51
100
AcDbEntity
  8
SOLIDO_FINALE
  6
CONTINUOUS
 62
        15
100
AcDbCircle
 10
18.9513489421
 20
-66.2679693622
 30
7.9
 40
15.75
  0
CIRCLE
  5
52
100
AcDbEntity
  8
SOLIDO_FINALE
  6
CONTINUOUS
 62
        15
100
AcDbCircle
 10
18.9513489421
 20
-66.2679693622
 30
7.9
 40
16.5
  0
CIRCLE
  5
53
100
AcDbEntity
  8
SOLIDO_FINALE
  6
CONTINUOUS
 62
        15
100
AcDbCircle
 10
18.9513489421
 20
-66.2679693622
 30
62.6
 40
16.5
  0
CIRCLE
  5
54
100
AcDbEntity
  8
SOLIDO_FINALE
  6
CONTINUOUS
 62
        15
100
AcDbCircle
 10
18.9513489421
 20
-66.2679693622
 30
62.9
 40
16.2
  0
LINE
  5
55
100
AcDbEntity
  8
SOLIDO_FINALE
  6
CONTINUOUS
 62
        15
100
AcDbLine
 10
16.7013489421
 20
-51.9436020114
 30
22.2
 11
16.7013489421
 21
-49.9220983239
 31
22.2
  0
LINE
  5
56
100
AcDbEntity
  8
SOLIDO_FINALE
  6
CONTINUOUS
 62
        15
100
AcDbLine
 10
18.9513489421
 20
-51.7679693622
 30
24.45
 11
18.9513489421
 21
-49.7679693622
 31
24.45
  0
LINE
  5
57
100
AcDbEntity
  8
SOLIDO_FINALE
  6
CONTINUOUS
 62
        15
100
AcDbLine
 10
21.2013489421
 20
-51.9436020114
 30
22.2
 11
21.2013489421
 21
-49.9220983239
 31
22.2
  0
LINE
  5
58
100
AcDbEntity
  8
SOLIDO_FINALE
  6
CONTINUOUS
 62
        15
100
AcDbLine
 10
18.9513489421
 20
-51.7679693622
 30
19.95
 11
18.9513489421
 21
-49.7679693622
 31
19.95
  0
LINE
  5
59
100
AcDbEntity
  8
SOLIDO_FINALE
  6
CONTINUOUS
 62
        15
100
AcDbLine
 10
15.5513489421
 20
-66.2679693622
 30
59.4
 11
18.9513489421
 21
-66.2679693622
 31
61.3629909152
  0
LINE
  5
5A
100
AcDbEntity
  8
SOLIDO_FINALE
  6
CONTINUOUS
 62
        15
100
AcDbLine
 10
18.9513489421
 20
-69.6679693622
 30
59.4
 11
18.9513489421
 21
-66.2679693622
 31
61.3629909152
  0
LINE
  5
5B
100
AcDbEntity
  8
SOLIDO_FINALE
  6
CONTINUOUS
 62
        15
100
AcDbLine
 10
22.3513489421
 20
-66.2679693622
 30
59.4
 11
18.9513489421
 21
-66.2679693622
 31
61.3629909152
  0
LINE
  5
5C
100
AcDbEntity
  8
SOLIDO_FINALE
  6
CONTINUOUS
 62
        15
100
AcDbLine
 10
18.9513489421
 20
-62.8679693622
 30
59.4
 11
18.9513489421
 21
-66.2679693622
 31
61.3629909152
  0
LINE
  5
5D
100
AcDbEntity
  8
SOLIDO_FINALE
  6
CONTINUOUS
 62
        15
100
AcDbLine
 10
15.5513489421
 20
-66.2679693622
 30
52.65
 11
15.5513489421
 21
-66.2679693622
 31
59.4
  0
LINE
  5
5E
100
AcDbEntity
  8
SOLIDO_FINALE
  6
CONTINUOUS
 62
        15
100
AcDbLine
 10
18.9513489421
 20
-69.6679693622
 30
52.65
 11
18.9513489421
 21
-69.6679693622
 31
59.4
  0
LINE
  5
5F
100
AcDbEntity
  8
SOLIDO_FINALE
  6
CONTINUOUS
 62
        15
100
AcDbLine
 10
22.3513489421
 20
-66.2679693622
 30
52.65
 11
22.3513489421
 21
-66.2679693622
 31
59.4
  0
LINE
  5
60
100
AcDbEntity
  8
SOLIDO_FINALE
  6
CONTINUOUS
 62
        15
100
AcDbLine
 10
18.9513489421
 20
-62.8679693622
 30
52.65
 11
18.9513489421
 21
-62.8679693622
 31
59.4
  0
LINE
  5
61
100
AcDbEntity
  8
SOLIDO_FINALE
  6
CONTINUOUS
 62
        15
100
AcDbLine
 10
14.8013489421
 20
-66.2679693622
 30
51.9
 11
15.5513489421
 21
-66.2679693622
 31
52.65
  0
LINE
  5
62
100
AcDbEntity
  8
SOLIDO_FINALE
  6
CONTINUOUS
 62
        15
100
AcDbLine
 10
18.9513489421
 20
-70.4179693622
 30
51.9
 11
18.9513489421
 21
-69.6679693622
 31
52.65
  0
LINE
  5
63
100
AcDbEntity
  8
SOLIDO_FINALE
  6
CONTINUOUS
 62
        15
100
AcDbLine
 10
23.1013489421
 20
-66.2679693622
 30
51.9
 11
22.3513489421
 21
-66.2679693622
 31
52.65
  0
LINE
  5
64
100
AcDbEntity
  8
SOLIDO_FINALE
  6
CONTINUOUS
 62
        15
100
AcDbLine
 10
18.9513489421
 20
-62.1179693622
 30
51.9
 11
18.9513489421
 21
-62.8679693622
 31
52.65
  0
LINE
  5
65
100
AcDbEntity
  8
SOLIDO_FINALE
  6
CONTINUOUS
 62
        15
100
AcDbLine
 10
14.8013489421
 20
-66.2679693622
 30
50.2
 11
14.8013489421
 21
-66.2679693622
 31
51.9
  0
LINE
  5
66
100
AcDbEntity
  8
SOLIDO_FINALE
  6
CONTINUOUS
 62
        15
100
AcDbLine
 10
18.9513489421
 20
-70.4179693622
 30
50.2
 11
18.9513489421
 21
-70.4179693622
 31
51.9
  0
LINE
  5
67
100
AcDbEntity
  8
SOLIDO_FINALE
  6
CONTINUOUS
 62
        15
100
AcDbLine
 10
23.1013489421
 20
-66.2679693622
 30
50.2
 11
23.1013489421
 21
-66.2679693622
 31
51.9
  0
LINE
  5
68
100
AcDbEntity
  8
SOLIDO_FINALE
  6
CONTINUOUS
 62
        15
100
AcDbLine
 10
18.9513489421
 20
-62.1179693622
 30
50.2
 11
18.9513489421
 21
-62.1179693622
 31
51.9
  0
ARC
  5
69
100
AcDbEntity
  8
SOLIDO_FINALE
  6
CONTINUOUS
 62
        15
100
AcDbCircle
 10
70.7179693622
 20
50.2
 30
-18.9513489421
 40
0.3
210
-1.0
220
0.0
230
0.0
100
AcDbArc
 50
180.0
 51
270.0
  0
ARC
  5
6A
100
AcDbEntity
  8
SOLIDO_FINALE
  6
CONTINUOUS
 62
        15
100
AcDbCircle
 10
23.4013489421
 20
50.2
 30
66.2679693622
 40
0.3
210
0.0
220
-1.0
230
0.0
100
AcDbArc
 50
180.0
 51
270.0
  0
ARC
  5
6B
100
AcDbEntity
  8
SOLIDO_FINALE
  6
CONTINUOUS
 62
        15
100
AcDbCircle
 10
-61.8179693622
 20
50.2
 30
18.9513489421
 40
0.3
210
1.0
220
0.0
230
0.0
100
AcDbArc
 50
180.0
 51
270.0
  0
ARC
  5
6C
100
AcDbEntity
  8
SOLIDO_FINALE
  6
CONTINUOUS
 62
        15
100
AcDbCircle
 10
-14.5013489421
 20
50.2
 30
-66.2679693622
 40
0.3
210
0.0
220
1.0
230
0.0
100
AcDbArc
 50
180.0
 51
270.0
  0
CIRCLE
  5
6D
100
AcDbEntity
  8
SOLIDO_FINALE
  6
CONTINUOUS
 62
        15
100
AcDbCircle
 10
18.9513489421
 20
-66.2679693622
 30
49.9878679656
 40
4.2378679656
  0
LINE
  5
6E
100
AcDbEntity
  8
SOLIDO_FINALE
  6
CONTINUOUS
 62
        15
100
AcDbLine
 10
11.9513489421
 20
-66.2679693622
 30
49.9
 11
11.9513489421
 21
-66.2679693622
 31
58.9
  0
LINE
  5
6F
100
AcDbEntity
  8
SOLIDO_FINALE
  6
CONTINUOUS
 62
        15
100
AcDbLine
 10
18.9513489421
 20
-73.2679693622
 30
49.9
 11
18.9513489421
 21
-73.2679693622
 31
58.9
  0
LINE
  5
70
100
AcDbEntity
  8
SOLIDO_FINALE
  6
CONTINUOUS
 62
        15
100
AcDbLine
 10
25.9513489421
 20
-66.2679693622
 30
49.9
 11
25.9513489421
 21
-66.2679693622
 31
58.9
  0
LINE
  5
71
100
AcDbEntity
  8
SOLIDO_FINALE
  6
CONTINUOUS
 62
        15
100
AcDbLine
 10
18.9513489421
 20
-59.2679693622
 30
49.9
 11
18.9513489421
 21
-59.2679693622
 31
58.9
  0
ARC
  5
72
100
AcDbEntity
  8
SOLIDO_FINALE
  6
CONTINUOUS
 62
        15
100
AcDbCircle
 10
74.2679693622
 20
58.9
 30
-18.9513489421
 40
1.0
210
-1.0
220
0.0
230
0.0
100
AcDbArc
 50
90.0
 51
180.0
  0
ARC
  5
73
100
AcDbEntity
  8
SOLIDO_FINALE
  6
CONTINUOUS
 62
        15
100
AcDbCircle
 10
26.9513489421
 20
58.9
 30
66.2679693622
 40
1.0
210
0.0
220
-1.0
230
0.0
100
AcDbArc
 50
90.0
 51
180.0
  0
ARC
  5
74
100
AcDbEntity
  8
SOLIDO_FINALE
  6
CONTINUOUS
 62
        15
100
AcDbCircle
 10
-58.2679693622
 20
58.9
 30
18.9513489421
 40
1.0
210
1.0
220
0.0
230
0.0
100
AcDbArc
 50
90.0
 51
180.0
  0
ARC
  5
75
100
AcDbEntity
  8
SOLIDO_FINALE
  6
CONTINUOUS
 62
        15
100
AcDbCircle
 10
-10.9513489421
 20
58.9
 30
-66.2679693622
 40
1.0
210
0.0
220
1.0
230
0.0
100
AcDbArc
 50
90.0
 51
180.0
  0
CIRCLE
  5
76
100
AcDbEntity
  8
SOLIDO_FINALE
  6
CONTINUOUS
 62
        15
100
AcDbCircle
 10
18.9513489421
 20
-66.2679693622
 30
59.6071067812
 40
7.2928932188
  0
ARC
  5
77
100
AcDbEntity
  8
SOLIDO_FINALE
  6
CONTINUOUS
 62
        15
100
AcDbCircle
 10
79.7679693622
 20
58.9
 30
-18.9513489421
 40
1.0
210
-1.0
220
0.0
230
0.0
100
AcDbArc
 50
0.0
 51
90.0
  0
ARC
  5
78
100
AcDbEntity
  8
SOLIDO_FINALE
  6
CONTINUOUS
 62
        15
100
AcDbCircle
 10
32.4513489421
 20
58.9
 30
66.2679693622
 40
1.0
210
0.0
220
-1.0
230
0.0
100
AcDbArc
 50
0.0
 51
90.0
  0
ARC
  5
79
100
AcDbEntity
  8
SOLIDO_FINALE
  6
CONTINUOUS
 62
        15
100
AcDbCircle
 10
-52.7679693622
 20
58.9
 30
18.9513489421
 40
1.0
210
1.0
220
0.0
230
0.0
100
AcDbArc
 50
0.0
 51
90.0
  0
ARC
  5
7A
100
AcDbEntity
  8
SOLIDO_FINALE
  6
CONTINUOUS
 62
        15
100
AcDbCircle
 10
-5.4513489421
 20
58.9
 30
-66.2679693622
 40
1.0
210
0.0
220
1.0
230
0.0
100
AcDbArc
 50
0.0
 51
90.0
  0
CIRCLE
  5
7B
100
AcDbEntity
  8
SOLIDO_FINALE
  6
CONTINUOUS
 62
        15
100
AcDbCircle
 10
18.9513489421
 20
-66.2679693622
 30
59.6071067812
 40
14.2071067812
  0
LINE
  5
7C
100
AcDbEntity
  8
SOLIDO_FINALE
  6
CONTINUOUS
 62
        15
100
AcDbLine
 10
4.4513489421
 20
-66.2679693622
 30
12.5650635095
 11
4.4513489421
 21
-66.2679693622
 31
58.9
  0
LINE
  5
7D
100
AcDbEntity
  8
SOLIDO_FINALE
  6
CONTINUOUS
 62
        15
100
AcDbLine
 10
18.9513489421
 20
-80.7679693622
 30
12.5650635095
 11
18.9513489421
 21
-80.7679693622
 31
58.9
  0
LINE
  5
7E
100
AcDbEntity
  8
SOLIDO_FINALE
  6
CONTINUOUS
 62
        15
100
AcDbLine
 10
33.4513489421
 20
-66.2679693622
 30
12.5650635095
 11
33.4513489421
 21
-66.2679693622
 31
58.9
  0
LINE
  5
7F
100
AcDbEntity
  8
SOLIDO_FINALE
  6
CONTINUOUS
 62
        15
100
AcDbLine
 10
18.9513489421
 20
-51.7679693622
 30
12.5650635095
 11
18.9513489421
 21
-51.7679693622
 31
19.95
  0
LINE
  5
80
100
AcDbEntity
  8
SOLIDO_FINALE
  6
CONTINUOUS
 62
        15
100
AcDbLine
 10
18.9513489421
 20
-51.7679693622
 30
24.45
 11
18.9513489421
 21
-51.7679693622
 31
58.9
  0
LINE
  5
81
100
AcDbEntity
  8
SOLIDO_FINALE
  6
CONTINUOUS
 62
        15
100
AcDbLine
 10
3.2013489421
 20
-66.2679693622
 30
7.9
 11
4.4513489421
 21
-66.2679693622
 31
12.5650635095
  0
LINE
  5
82
100
AcDbEntity
  8
SOLIDO_FINALE
  6
CONTINUOUS
 62
        15
100
AcDbLine
 10
18.9513489421
 20
-82.0179693622
 30
7.9
 11
18.9513489421
 21
-80.7679693622
 31
12.5650635095
  0
LINE
  5
83
100
AcDbEntity
  8
SOLIDO_FINALE
  6
CONTINUOUS
 62
        15
100
AcDbLine
 10
34.7013489421
 20
-66.2679693622
 30
7.9
 11
33.4513489421
 21
-66.2679693622
 31
12.5650635095
  0
LINE
  5
84
100
AcDbEntity
  8
SOLIDO_FINALE
  6
CONTINUOUS
 62
        15
100
AcDbLine
 10
18.9513489421
 20
-50.5179693622
 30
7.9
 11
18.9513489421
 21
-51.7679693622
 31
12.5650635095
  0
LINE
  5
85
100
AcDbEntity
  8
SOLIDO_FINALE
  6
CONTINUOUS
 62
        15
100
AcDbLine
 10
2.4513489421
 20
-66.2679693622
 30
7.9
 11
2.4513489421
 21
-66.2679693622
 31
62.6
  0
LINE
  5
86
100
AcDbEntity
  8
SOLIDO_FINALE
  6
CONTINUOUS
 62
        15
100
AcDbLine
 10
18.9513489421
 20
-82.7679693622
 30
7.9
 11
18.9513489421
 21
-82.7679693622
 31
62.6
  0
LINE
  5
87
100
AcDbEntity
  8
SOLIDO_FINALE
  6
CONTINUOUS
 62
        15
100
AcDbLine
 10
35.4513489421
 20
-66.2679693622
 30
7.9
 11
35.4513489421
 21
-66.2679693622
 31
62.6
  0
LINE
  5
88
100
AcDbEntity
  8
SOLIDO_FINALE
  6
CONTINUOUS
 62
        15
100
AcDbLine
 10
18.9513489421
 20
-49.7679693622
 30
7.9
 11
18.9513489421
 21
-49.7679693622
 31
19.95
  0
LINE
  5
89
100
AcDbEntity
  8
SOLIDO_FINALE
  6
CONTINUOUS
 62
        15
100
AcDbLine
 10
18.9513489421
 20
-49.7679693622
 30
24.45
 11
18.9513489421
 21
-49.7679693622
 31
62.6
  0
ARC
  5
8A
100
AcDbEntity
  8
SOLIDO_FINALE
  6
CONTINUOUS
 62
        15
100
AcDbCircle
 10
82.4679693622
 20
62.6
 30
-18.9513489421
 40
0.3
210
-1.0
220
0.0
230
0.0
100
AcDbArc
 50
0.0
 51
90.0
  0
ARC
  5
8B
100
AcDbEntity
  8
SOLIDO_FINALE
  6
CONTINUOUS
 62
        15
100
AcDbCircle
 10
35.1513489421
 20
62.6
 30
66.2679693622
 40
0.3
210
0.0
220
-1.0
230
0.0
100
AcDbArc
 50
0.0
 51
90.0
  0
ARC
  5
8C
100
AcDbEntity
  8
SOLIDO_FINALE
  6
CONTINUOUS
 62
        15
100
AcDbCircle
 10
-50.0679693622
 20
62.6
 30
18.9513489421
 40
0.3
210
1.0
220
0.0
230
0.0
100
AcDbArc
 50
0.0
 51
90.0
  0
ARC
  5
8D
100
AcDbEntity
  8
SOLIDO_FINALE
  6
CONTINUOUS
 62
        15
100
AcDbCircle
 10
-2.7513489421
 20
62.6
 30
-66.2679693622
 40
0.3
210
0.0
220
1.0
230
0.0
100
AcDbArc
 50
0.0
 51
90.0
  0
CIRCLE
  5
8E
100
AcDbEntity
  8
SOLIDO_FINALE
  6
CONTINUOUS
 62
        15
100
AcDbCircle
 10
18.9513489421
 20
-66.2679693622
 30
62.8121320343
 40
16.4121320343
  0
POLYLINE
  5
90
100
AcDbEntity
  8
SOLIDO_FINALE
  6
CONTINUOUS
 62
        15
100
AcDb3dPolyline
 66
         1
 10
0.0
 20
0.0
 30
22.2
 70
         8
  0
VERTEX
  5
92
100
AcDbEntity
  8
SOLIDO_FINALE
  6
CONTINUOUS
 62
        15
100
AcDbVertex
100
AcDb3dPolylineVertex
 10
16.7013489421
 20
-51.9436020114
 30
22.2
 70
        32
  0
VERTEX
  5
94
100
AcDbEntity
  8
SOLIDO_FINALE
  6
CONTINUOUS
 62
        15
100
AcDbVertex
100
AcDb3dPolylineVertex
 10
16.7018532384
 20
-51.9435221454
 30
22.247336824
 70
        32
  0
VERTEX
  5
96
100
AcDbEntity
  8
SOLIDO_FINALE
  6
CONTINUOUS
 62
        15
100
AcDbVertex
100
AcDb3dPolylineVertex
 10
16.7033737995
 20
-51.9432820599
 30
22.2949799022
 70
        32
  0
VERTEX
  5
98
100
AcDbEntity
  8
SOLIDO_FINALE
  6
CONTINUOUS
 62
        15
100
AcDbVertex
100
AcDb3dPolylineVertex
 10
16.7059221338
 20
-51.9428810241
 30
22.3428829818
 70
        32
  0
VERTEX
  5
9A
100
AcDbEntity
  8
SOLIDO_FINALE
  6
CONTINUOUS
 62
        15
100
AcDbVertex
100
AcDb3dPolylineVertex
 10
16.7095097496
 20
-51.9423183071
 30
22.3909998102
 70
        32
  0
VERTEX
  5
9C
100
AcDbEntity
  8
SOLIDO_FINALE
  6
CONTINUOUS
 62
        15
100
AcDbVertex
100
AcDb3dPolylineVertex
 10
16.7141481552
 20
-51.9415931779
 30
22.4392841346
 70
        32
  0
VERTEX
  5
9E
100
AcDbEntity
  8
SOLIDO_FINALE
  6
CONTINUOUS
 62
        15
100
AcDbVertex
100
AcDb3dPolylineVertex
 10
16.7198488589
 20
-51.9407049055
 30
22.4876897022
 70
        32
  0
VERTEX
  5
A0
100
AcDbEntity
  8
SOLIDO_FINALE
  6
CONTINUOUS
 62
        15
100
AcDbVertex
100
AcDb3dPolylineVertex
 10
16.7266233692
 20
-51.939652759
 30
22.5361702605
 70
        32
  0
VERTEX
  5
A2
100
AcDbEntity
  8
SOLIDO_FINALE
  6
CONTINUOUS
 62
        15
100
AcDbVertex
100
AcDb3dPolylineVertex
 10
16.7344831942
 20
-51.9384360075
 30
22.5846795566
 70
        32
  0
VERTEX
  5
A4
100
AcDbEntity
  8
SOLIDO_FINALE
  6
CONTINUOUS
 62
        15
100
AcDbVertex
100
AcDb3dPolylineVertex
 10
16.7434398425
 20
-51.9370539201
 30
22.6331713379
 70
        32
  0
VERTEX
  5
A6
100
AcDbEntity
  8
SOLIDO_FINALE
  6
CONTINUOUS
 62
        15
100
AcDbVertex
100
AcDb3dPolylineVertex
 10
16.7535010704
 20
-51.9355068704
 30
22.681600121
 70
        32
  0
VERTEX
  5
A8
100
AcDbEntity
  8
SOLIDO_FINALE
  6
CONTINUOUS
 62
        15
100
AcDbVertex
100
AcDb3dPolylineVertex
 10
16.7646615565
 20
-51.9337987191
 30
22.7299230938
 70
        32
  0
VERTEX
  5
AA
100
AcDbEntity
  8
SOLIDO_FINALE
  6
CONTINUOUS
 62
        15
100
AcDbVertex
100
AcDb3dPolylineVertex
 10
16.7769131922
 20
-51.9319339655
 30
22.7780980103
 70
        32
  0
VERTEX
  5
AC
100
AcDbEntity
  8
SOLIDO_FINALE
  6
CONTINUOUS
 62
        15
100
AcDbVertex
100
AcDb3dPolylineVertex
 10
16.7902478687
 20
-51.9299171086
 30
22.8260826244
 70
        32
  0
VERTEX
  5
AE
100
AcDbEntity
  8
SOLIDO_FINALE
  6
CONTINUOUS
 62
        15
100
AcDbVertex
100
AcDb3dPolylineVertex
 10
16.8046574774
 20
-51.927752648
 30
22.8738346901
 70
        32
  0
VERTEX
  5
B0
100
AcDbEntity
  8
SOLIDO_FINALE
  6
CONTINUOUS
 62
        15
100
AcDbVertex
100
AcDb3dPolylineVertex
 10
16.8201339096
 20
-51.9254450827
 30
22.9213119613
 70
        32
  0
VERTEX
  5
B2
100
AcDbEntity
  8
SOLIDO_FINALE
  6
CONTINUOUS
 62
        15
100
AcDbVertex
100
AcDb3dPolylineVertex
 10
16.8366690567
 20
-51.9229989121
 30
22.968472192
 70
        32
  0
VERTEX
  5
B4
100
AcDbEntity
  8
SOLIDO_FINALE
  6
CONTINUOUS
 62
        15
100
AcDbVertex
100
AcDb3dPolylineVertex
 10
16.8542548099
 20
-51.9204186355
 30
23.0152731361
 70
        32
  0
VERTEX
  5
B6
100
AcDbEntity
  8
SOLIDO_FINALE
  6
CONTINUOUS
 62
        15
100
AcDbVertex
100
AcDb3dPolylineVertex
 10
16.8728830605
 20
-51.917708752
 30
23.0616725476
 70
        32
  0
VERTEX
  5
B8
100
AcDbEntity
  8
SOLIDO_FINALE
  6
CONTINUOUS
 62
        15
100
AcDbVertex
100
AcDb3dPolylineVertex
 10
16.8925463429
 20
-51.9148744395
 30
23.1076377023
 70
        32
  0
VERTEX
  5
BA
100
AcDbEntity
  8
SOLIDO_FINALE
  6
CONTINUOUS
 62
        15
100
AcDbVertex
100
AcDb3dPolylineVertex
 10
16.9132262208
 20
-51.9119232098
 30
23.1531406196
 70
        32
  0
VERTEX
  5
BC
100
AcDbEntity
  8
SOLIDO_FINALE
  6
CONTINUOUS
 62
        15
100
AcDbVertex
100
AcDb3dPolylineVertex
 10
16.9348981304
 20
-51.9088630638
 30
23.1981461692
 70
        32
  0
VERTEX
  5
BE
100
AcDbEntity
  8
SOLIDO_FINALE
  6
CONTINUOUS
 62
        15
100
AcDbVertex
100
AcDb3dPolylineVertex
 10
16.9575375078
 20
-51.9057020021
 30
23.2426192209
 70
        32
  0
VERTEX
  5
C0
100
AcDbEntity
  8
SOLIDO_FINALE
  6
CONTINUOUS
 62
        15
100
AcDbVertex
100
AcDb3dPolylineVertex
 10
16.981119789
 20
-51.9024480255
 30
23.2865246442
 70
        32
  0
VERTEX
  5
C2
100
AcDbEntity
  8
SOLIDO_FINALE
  6
CONTINUOUS
 62
        15
100
AcDbVertex
100
AcDb3dPolylineVertex
 10
17.00562041
 20
-51.8991091348
 30
23.3298273089
 70
        32
  0
VERTEX
  5
C4
100
AcDbEntity
  8
SOLIDO_FINALE
  6
CONTINUOUS
 62
        15
100
AcDbVertex
100
AcDb3dPolylineVertex
 10
17.0310148069
 20
-51.8956933307
 30
23.3724920847
 70
        32
  0
VERTEX
  5
C6
100
AcDbEntity
  8
SOLIDO_FINALE
  6
CONTINUOUS
 62
        15
100
AcDbVertex
100
AcDb3dPolylineVertex
 10
17.0572784157
 20
-51.8922086139
 30
23.4144838413
 70
        32
  0
VERTEX
  5
C8
100
AcDbEntity
  8
SOLIDO_FINALE
  6
CONTINUOUS
 62
        15
100
AcDbVertex
100
AcDb3dPolylineVertex
 10
17.0843866726
 20
-51.8886629852
 30
23.4557674483
 70
        32
  0
VERTEX
  5
CA
100
AcDbEntity
  8
SOLIDO_FINALE
  6
CONTINUOUS
 62
        15
100
AcDbVertex
100
AcDb3dPolylineVertex
 10
17.112312687
 20
-51.8850654253
 30
23.4963094259
 70
        32
  0
VERTEX
  5
CC
100
AcDbEntity
  8
SOLIDO_FINALE
  6
CONTINUOUS
 62
        15
100
AcDbVertex
100
AcDb3dPolylineVertex
 10
17.1410186427
 20
-51.8814255777
 30
23.536083701
 70
        32
  0
VERTEX
  5
CE
100
AcDbEntity
  8
SOLIDO_FINALE
  6
CONTINUOUS
 62
        15
100
AcDbVertex
100
AcDb3dPolylineVertex
 10
17.1704635873
 20
-51.8777524373
 30
23.5750662533
 70
        32
  0
VERTEX
  5
D0
100
AcDbEntity
  8
SOLIDO_FINALE
  6
CONTINUOUS
 62
        15
100
AcDbVertex
100
AcDb3dPolylineVertex
 10
17.2006065684
 20
-51.8740549986
 30
23.6132330627
 70
        32
  0
VERTEX
  5
D2
100
AcDbEntity
  8
SOLIDO_FINALE
  6
CONTINUOUS
 62
        15
100
AcDbVertex
100
AcDb3dPolylineVertex
 10
17.2314066335
 20
-51.8703422564
 30
23.6505601089
 70
        32
  0
VERTEX
  5
D4
100
AcDbEntity
  8
SOLIDO_FINALE
  6
CONTINUOUS
 62
        15
100
AcDbVertex
100
AcDb3dPolylineVertex
 10
17.2628228301
 20
-51.8666232055
 30
23.6870233717
 70
        32
  0
VERTEX
  5
D6
100
AcDbEntity
  8
SOLIDO_FINALE
  6
CONTINUOUS
 62
        15
100
AcDbVertex
100
AcDb3dPolylineVertex
 10
17.2948142057
 20
-51.8629068407
 30
23.7225988309
 70
        32
  0
VERTEX
  5
D8
100
AcDbEntity
  8
SOLIDO_FINALE
  6
CONTINUOUS
 62
        15
100
AcDbVertex
100
AcDb3dPolylineVertex
 10
17.327339808
 20
-51.8592021566
 30
23.7572624663
 70
        32
  0
VERTEX
  5
DA
100
AcDbEntity
  8
SOLIDO_FINALE
  6
CONTINUOUS
 62
        15
100
AcDbVertex
100
AcDb3dPolylineVertex
 10
17.3603586844
 20
-51.855518148
 30
23.7909902577
 70
        32
  0
VERTEX
  5
DC
100
AcDbEntity
  8
SOLIDO_FINALE
  6
CONTINUOUS
 62
        15
100
AcDbVertex
100
AcDb3dPolylineVertex
 10
17.3940858507
 20
-51.8518351972
 30
23.8240085334
 70
        32
  0
VERTEX
  5
DE
100
AcDbEntity
  8
SOLIDO_FINALE
  6
CONTINUOUS
 62
        15
100
AcDbVertex
100
AcDb3dPolylineVertex
 10
17.4287489418
 20
-51.848133514
 30
23.8565336576
 70
        32
  0
VERTEX
  5
E0
100
AcDbEntity
  8
SOLIDO_FINALE
  6
CONTINUOUS
 62
        15
100
AcDbVertex
100
AcDb3dPolylineVertex
 10
17.4643239386
 20
-51.8444220552
 30
23.8885246685
 70
        32
  0
VERTEX
  5
E2
100
AcDbEntity
  8
SOLIDO_FINALE
  6
CONTINUOUS
 62
        15
100
AcDbVertex
100
AcDb3dPolylineVertex
 10
17.500786822
 20
-51.8407097774
 30
23.9199406047
 70
        32
  0
VERTEX
  5
E4
100
AcDbEntity
  8
SOLIDO_FINALE
  6
CONTINUOUS
 62
        15
100
AcDbVertex
100
AcDb3dPolylineVertex
 10
17.5381135732
 20
-51.8370056374
 30
23.9507405045
 70
        32
  0
VERTEX
  5
E6
100
AcDbEntity
  8
SOLIDO_FINALE
  6
CONTINUOUS
 62
        15
100
AcDbVertex
100
AcDb3dPolylineVertex
 10
17.5762801731
 20
-51.8333185918
 30
23.9808834064
 70
        32
  0
VERTEX
  5
E8
100
AcDbEntity
  8
SOLIDO_FINALE
  6
CONTINUOUS
 62
        15
100
AcDbVertex
100
AcDb3dPolylineVertex
 10
17.6152626028
 20
-51.8296575973
 30
24.0103283487
 70
        32
  0
VERTEX
  5
EA
100
AcDbEntity
  8
SOLIDO_FINALE
  6
CONTINUOUS
 62
        15
100
AcDbVertex
100
AcDb3dPolylineVertex
 10
17.6550368432
 20
-51.8260316105
 30
24.0390343698
 70
        32
  0
VERTEX
  5
EC
100
AcDbEntity
  8
SOLIDO_FINALE
  6
CONTINUOUS
 62
        15
100
AcDbVertex
100
AcDb3dPolylineVertex
 10
17.6955788753
 20
-51.8224495882
 30
24.0669605083
 70
        32
  0
VERTEX
  5
EE
100
AcDbEntity
  8
SOLIDO_FINALE
  6
CONTINUOUS
 62
        15
100
AcDbVertex
100
AcDb3dPolylineVertex
 10
17.7368626253
 20
-51.8189210889
 30
24.0940689351
 70
        32
  0
VERTEX
  5
F0
100
AcDbEntity
  8
SOLIDO_FINALE
  6
CONTINUOUS
 62
        15
100
AcDbVertex
100
AcDb3dPolylineVertex
 10
17.7788546048
 20
-51.8154549201
 30
24.1203327476
 70
        32
  0
VERTEX
  5
F2
100
AcDbEntity
  8
SOLIDO_FINALE
  6
CONTINUOUS
 62
        15
100
AcDbVertex
100
AcDb3dPolylineVertex
 10
17.8215196732
 20
-51.8120589116
 30
24.1457273735
 70
        32
  0
VERTEX
  5
F4
100
AcDbEntity
  8
SOLIDO_FINALE
  6
CONTINUOUS
 62
        15
100
AcDbVertex
100
AcDb3dPolylineVertex
 10
17.8648226895
 20
-51.8087408936
 30
24.1702282404
 70
        32
  0
VERTEX
  5
F6
100
AcDbEntity
  8
SOLIDO_FINALE
  6
CONTINUOUS
 62
        15
100
AcDbVertex
100
AcDb3dPolylineVertex
 10
17.9087285131
 20
-51.805508696
 30
24.1938107761
 70
        32
  0
VERTEX
  5
F8
100
AcDbEntity
  8
SOLIDO_FINALE
  6
CONTINUOUS
 62
        15
100
AcDbVertex
100
AcDb3dPolylineVertex
 10
17.9532020032
 20
-51.8023701488
 30
24.2164504081
 70
        32
  0
VERTEX
  5
FA
100
AcDbEntity
  8
SOLIDO_FINALE
  6
CONTINUOUS
 62
        15
100
AcDbVertex
100
AcDb3dPolylineVertex
 10
17.9982080189
 20
-51.799333082
 30
24.2381225643
 70
        32
  0
VERTEX
  5
FC
100
AcDbEntity
  8
SOLIDO_FINALE
  6
CONTINUOUS
 62
        15
100
AcDbVertex
100
AcDb3dPolylineVertex
 10
18.0437114197
 20
-51.7964053257
 30
24.2588026721
 70
        32
  0
VERTEX
  5
FE
100
AcDbEntity
  8
SOLIDO_FINALE
  6
CONTINUOUS
 62
        15
100
AcDbVertex
100
AcDb3dPolylineVertex
 10
18.0896770646
 20
-51.7935947099
 30
24.2784661593
 70
        32
  0
VERTEX
  5
100
100
AcDbEntity
  8
SOLIDO_FINALE
  6
CONTINUOUS
 62
        15
100
AcDbVertex
100
AcDb3dPolylineVertex
 10
18.1360769615
 20
-51.7909085327
 30
24.2970945824
 70
        32
  0
VERTEX
  5
102
100
AcDbEntity
  8
SOLIDO_FINALE
  6
CONTINUOUS
 62
        15
100
AcDbVertex
100
AcDb3dPolylineVertex
 10
18.1828783754
 20
-51.7883517565
 30
24.3146804744
 70
        32
  0
VERTEX
  5
104
100
AcDbEntity
  8
SOLIDO_FINALE
  6
CONTINUOUS
 62
        15
100
AcDbVertex
100
AcDb3dPolylineVertex
 10
18.2300390511
 20
-51.7859287075
 30
24.3312157279
 70
        32
  0
VERTEX
  5
106
100
AcDbEntity
  8
SOLIDO_FINALE
  6
CONTINUOUS
 62
        15
100
AcDbVertex
100
AcDb3dPolylineVertex
 10
18.2775167332
 20
-51.7836437119
 30
24.3466922355
 70
        32
  0
VERTEX
  5
108
100
AcDbEntity
  8
SOLIDO_FINALE
  6
CONTINUOUS
 62
        15
100
AcDbVertex
100
AcDb3dPolylineVertex
 10
18.3252691665
 20
-51.7815010958
 30
24.3611018898
 70
        32
  0
VERTEX
  5
10A
100
AcDbEntity
  8
SOLIDO_FINALE
  6
CONTINUOUS
 62
        15
100
AcDbVertex
100
AcDb3dPolylineVertex
 10
18.3732540959
 20
-51.7795051856
 30
24.3744365835
 70
        32
  0
VERTEX
  5
10C
100
AcDbEntity
  8
SOLIDO_FINALE
  6
CONTINUOUS
 62
        15
100
AcDbVertex
100
AcDb3dPolylineVertex
 10
18.421429266
 20
-51.7776603072
 30
24.386688209
 70
        32
  0
VERTEX
  5
10E
100
AcDbEntity
  8
SOLIDO_FINALE
  6
CONTINUOUS
 62
        15
100
AcDbVertex
100
AcDb3dPolylineVertex
 10
18.4697524217
 20
-51.775970787
 30
24.397848659
 70
        32
  0
VERTEX
  5
110
100
AcDbEntity
  8
SOLIDO_FINALE
  6
CONTINUOUS
 62
        15
100
AcDbVertex
100
AcDb3dPolylineVertex
 10
18.5181813077
 20
-51.7744409512
 30
24.4079098262
 70
        32
  0
VERTEX
  5
112
100
AcDbEntity
  8
SOLIDO_FINALE
  6
CONTINUOUS
 62
        15
100
AcDbVertex
100
AcDb3dPolylineVertex
 10
18.5666731023
 20
-51.7730744828
 30
24.4168663921
 70
        32
  0
VERTEX
  5
114
100
AcDbEntity
  8
SOLIDO_FINALE
  6
CONTINUOUS
 62
        15
100
AcDbVertex
100
AcDb3dPolylineVertex
 10
18.6151823161
 20
-51.7718716662
 30
24.4247261198
 70
        32
  0
VERTEX
  5
116
100
AcDbEntity
  8
SOLIDO_FINALE
  6
CONTINUOUS
 62
        15
100
AcDbVertex
100
AcDb3dPolylineVertex
 10
18.6636626917
 20
-51.7708317296
 30
24.4315005244
 70
        32
  0
VERTEX
  5
118
100
AcDbEntity
  8
SOLIDO_FINALE
  6
CONTINUOUS
 62
        15
100
AcDbVertex
100
AcDb3dPolylineVertex
 10
18.712067972
 20
-51.7699539011
 30
24.4372011208
 70
        32
  0
VERTEX
  5
11A
100
AcDbEntity
  8
SOLIDO_FINALE
  6
CONTINUOUS
 62
        15
100
AcDbVertex
100
AcDb3dPolylineVertex
 10
18.7603518999
 20
-51.7692374087
 30
24.4418394237
 70
        32
  0
VERTEX
  5
11C
100
AcDbEntity
  8
SOLIDO_FINALE
  6
CONTINUOUS
 62
        15
100
AcDbVertex
100
AcDb3dPolylineVertex
 10
18.808468218
 20
-51.7686814805
 30
24.4454269482
 70
        32
  0
VERTEX
  5
11E
100
AcDbEntity
  8
SOLIDO_FINALE
  6
CONTINUOUS
 62
        15
100
AcDbVertex
100
AcDb3dPolylineVertex
 10
18.8563706692
 20
-51.7682853446
 30
24.4479752091
 70
        32
  0
VERTEX
  5
120
100
AcDbEntity
  8
SOLIDO_FINALE
  6
CONTINUOUS
 62
        15
100
AcDbVertex
100
AcDb3dPolylineVertex
 10
18.9040129963
 20
-51.7680482291
 30
24.4494957214
 70
        32
  0
VERTEX
  5
122
100
AcDbEntity
  8
SOLIDO_FINALE
  6
CONTINUOUS
 62
        15
100
AcDbVertex
100
AcDb3dPolylineVertex
 10
18.9513489421
 20
-51.7679693622
 30
24.45
 70
        32
  0
VERTEX
  5
124
100
AcDbEntity
  8
SOLIDO_FINALE
  6
CONTINUOUS
 62
        15
100
AcDbVertex
100
AcDb3dPolylineVertex
 10
18.9986848878
 20
-51.7680482291
 30
24.4494957214
 70
        32
  0
VERTEX
  5
126
100
AcDbEntity
  8
SOLIDO_FINALE
  6
CONTINUOUS
 62
        15
100
AcDbVertex
100
AcDb3dPolylineVertex
 10
19.0463272149
 20
-51.7682853446
 30
24.4479752091
 70
        32
  0
VERTEX
  5
128
100
AcDbEntity
  8
SOLIDO_FINALE
  6
CONTINUOUS
 62
        15
100
AcDbVertex
100
AcDb3dPolylineVertex
 10
19.0942296661
 20
-51.7686814805
 30
24.4454269482
 70
        32
  0
VERTEX
  5
12A
100
AcDbEntity
  8
SOLIDO_FINALE
  6
CONTINUOUS
 62
        15
100
AcDbVertex
100
AcDb3dPolylineVertex
 10
19.1423459843
 20
-51.7692374087
 30
24.4418394237
 70
        32
  0
VERTEX
  5
12C
100
AcDbEntity
  8
SOLIDO_FINALE
  6
CONTINUOUS
 62
        15
100
AcDbVertex
100
AcDb3dPolylineVertex
 10
19.1906299121
 20
-51.7699539011
 30
24.4372011208
 70
        32
  0
VERTEX
  5
12E
100
AcDbEntity
  8
SOLIDO_FINALE
  6
CONTINUOUS
 62
        15
100
AcDbVertex
100
AcDb3dPolylineVertex
 10
19.2390351924
 20
-51.7708317296
 30
24.4315005244
 70
        32
  0
VERTEX
  5
130
100
AcDbEntity
  8
SOLIDO_FINALE
  6
CONTINUOUS
 62
        15
100
AcDbVertex
100
AcDb3dPolylineVertex
 10
19.287515568
 20
-51.7718716662
 30
24.4247261198
 70
        32
  0
VERTEX
  5
132
100
AcDbEntity
  8
SOLIDO_FINALE
  6
CONTINUOUS
 62
        15
100
AcDbVertex
100
AcDb3dPolylineVertex
 10
19.3360247818
 20
-51.7730744828
 30
24.4168663921
 70
        32
  0
VERTEX
  5
134
100
AcDbEntity
  8
SOLIDO_FINALE
  6
CONTINUOUS
 62
        15
100
AcDbVertex
100
AcDb3dPolylineVertex
 10
19.3845165765
 20
-51.7744409512
 30
24.4079098262
 70
        32
  0
VERTEX
  5
136
100
AcDbEntity
  8
SOLIDO_FINALE
  6
CONTINUOUS
 62
        15
100
AcDbVertex
100
AcDb3dPolylineVertex
 10
19.4329454624
 20
-51.775970787
 30
24.397848659
 70
        32
  0
VERTEX
  5
138
100
AcDbEntity
  8
SOLIDO_FINALE
  6
CONTINUOUS
 62
        15
100
AcDbVertex
100
AcDb3dPolylineVertex
 10
19.4812686181
 20
-51.7776603072
 30
24.386688209
 70
        32
  0
VERTEX
  5
13A
100
AcDbEntity
  8
SOLIDO_FINALE
  6
CONTINUOUS
 62
        15
100
AcDbVertex
100
AcDb3dPolylineVertex
 10
19.5294437883
 20
-51.7795051855
 30
24.3744365835
 70
        32
  0
VERTEX
  5
13C
100
AcDbEntity
  8
SOLIDO_FINALE
  6
CONTINUOUS
 62
        15
100
AcDbVertex
100
AcDb3dPolylineVertex
 10
19.5774287176
 20
-51.7815010958
 30
24.3611018898
 70
        32
  0
VERTEX
  5
13E
100
AcDbEntity
  8
SOLIDO_FINALE
  6
CONTINUOUS
 62
        15
100
AcDbVertex
100
AcDb3dPolylineVertex
 10
19.6251811509
 20
-51.7836437119
 30
24.3466922355
 70
        32
  0
VERTEX
  5
140
100
AcDbEntity
  8
SOLIDO_FINALE
  6
CONTINUOUS
 62
        15
100
AcDbVertex
100
AcDb3dPolylineVertex
 10
19.6726588331
 20
-51.7859287075
 30
24.3312157279
 70
        32
  0
VERTEX
  5
142
100
AcDbEntity
  8
SOLIDO_FINALE
  6
CONTINUOUS
 62
        15
100
AcDbVertex
100
AcDb3dPolylineVertex
 10
19.7198195087
 20
-51.7883517565
 30
24.3146804744
 70
        32
  0
VERTEX
  5
144
100
AcDbEntity
  8
SOLIDO_FINALE
  6
CONTINUOUS
 62
        15
100
AcDbVertex
100
AcDb3dPolylineVertex
 10
19.7666209226
 20
-51.7909085327
 30
24.2970945824
 70
        32
  0
VERTEX
  5
146
100
AcDbEntity
  8
SOLIDO_FINALE
  6
CONTINUOUS
 62
        15
100
AcDbVertex
100
AcDb3dPolylineVertex
 10
19.8130208196
 20
-51.7935947099
 30
24.2784661593
 70
        32
  0
VERTEX
  5
148
100
AcDbEntity
  8
SOLIDO_FINALE
  6
CONTINUOUS
 62
        15
100
AcDbVertex
100
AcDb3dPolylineVertex
 10
19.8589864645
 20
-51.7964053257
 30
24.2588026721
 70
        32
  0
VERTEX
  5
14A
100
AcDbEntity
  8
SOLIDO_FINALE
  6
CONTINUOUS
 62
        15
100
AcDbVertex
100
AcDb3dPolylineVertex
 10
19.9044898652
 20
-51.799333082
 30
24.2381225643
 70
        32
  0
VERTEX
  5
14C
100
AcDbEntity
  8
SOLIDO_FINALE
  6
CONTINUOUS
 62
        15
100
AcDbVertex
100
AcDb3dPolylineVertex
 10
19.949495881
 20
-51.8023701488
 30
24.2164504081
 70
        32
  0
VERTEX
  5
14E
100
AcDbEntity
  8
SOLIDO_FINALE
  6
CONTINUOUS
 62
        15
100
AcDbVertex
100
AcDb3dPolylineVertex
 10
19.993969371
 20
-51.805508696
 30
24.1938107761
 70
        32
  0
VERTEX
  5
150
100
AcDbEntity
  8
SOLIDO_FINALE
  6
CONTINUOUS
 62
        15
100
AcDbVertex
100
AcDb3dPolylineVertex
 10
20.0378751946
 20
-51.8087408936
 30
24.1702282404
 70
        32
  0
VERTEX
  5
152
100
AcDbEntity
  8
SOLIDO_FINALE
  6
CONTINUOUS
 62
        15
100
AcDbVertex
100
AcDb3dPolylineVertex
 10
20.0811782109
 20
-51.8120589116
 30
24.1457273735
 70
        32
  0
VERTEX
  5
154
100
AcDbEntity
  8
SOLIDO_FINALE
  6
CONTINUOUS
 62
        15
100
AcDbVertex
100
AcDb3dPolylineVertex
 10
20.1238432793
 20
-51.8154549201
 30
24.1203327476
 70
        32
  0
VERTEX
  5
156
100
AcDbEntity
  8
SOLIDO_FINALE
  6
CONTINUOUS
 62
        15
100
AcDbVertex
100
AcDb3dPolylineVertex
 10
20.1658352588
 20
-51.8189210889
 30
24.0940689351
 70
        32
  0
VERTEX
  5
158
100
AcDbEntity
  8
SOLIDO_FINALE
  6
CONTINUOUS
 62
        15
100
AcDbVertex
100
AcDb3dPolylineVertex
 10
20.2071190088
 20
-51.8224495882
 30
24.0669605083
 70
        32
  0
VERTEX
  5
15A
100
AcDbEntity
  8
SOLIDO_FINALE
  6
CONTINUOUS
 62
        15
100
AcDbVertex
100
AcDb3dPolylineVertex
 10
20.247661041
 20
-51.8260316105
 30
24.0390343698
 70
        32
  0
VERTEX
  5
15C
100
AcDbEntity
  8
SOLIDO_FINALE
  6
CONTINUOUS
 62
        15
100
AcDbVertex
100
AcDb3dPolylineVertex
 10
20.2874352813
 20
-51.8296575973
 30
24.0103283487
 70
        32
  0
VERTEX
  5
15E
100
AcDbEntity
  8
SOLIDO_FINALE
  6
CONTINUOUS
 62
        15
100
AcDbVertex
100
AcDb3dPolylineVertex
 10
20.326417711
 20
-51.8333185918
 30
23.9808834064
 70
        32
  0
VERTEX
  5
160
100
AcDbEntity
  8
SOLIDO_FINALE
  6
CONTINUOUS
 62
        15
100
AcDbVertex
100
AcDb3dPolylineVertex
 10
20.3645843109
 20
-51.8370056374
 30
23.9507405045
 70
        32
  0
VERTEX
  5
162
100
AcDbEntity
  8
SOLIDO_FINALE
  6
CONTINUOUS
 62
        15
100
AcDbVertex
100
AcDb3dPolylineVertex
 10
20.4019110621
 20
-51.8407097774
 30
23.9199406047
 70
        32
  0
VERTEX
  5
164
100
AcDbEntity
  8
SOLIDO_FINALE
  6
CONTINUOUS
 62
        15
100
AcDbVertex
100
AcDb3dPolylineVertex
 10
20.4383739456
 20
-51.8444220552
 30
23.8885246685
 70
        32
  0
VERTEX
  5
166
100
AcDbEntity
  8
SOLIDO_FINALE
  6
CONTINUOUS
 62
        15
100
AcDbVertex
100
AcDb3dPolylineVertex
 10
20.4739489423
 20
-51.848133514
 30
23.8565336576
 70
        32
  0
VERTEX
  5
168
100
AcDbEntity
  8
SOLIDO_FINALE
  6
CONTINUOUS
 62
        15
100
AcDbVertex
100
AcDb3dPolylineVertex
 10
20.5086120334
 20
-51.8518351972
 30
23.8240085334
 70
        32
  0
VERTEX
  5
16A
100
AcDbEntity
  8
SOLIDO_FINALE
  6
CONTINUOUS
 62
        15
100
AcDbVertex
100
AcDb3dPolylineVertex
 10
20.5423391997
 20
-51.855518148
 30
23.7909902577
 70
        32
  0
VERTEX
  5
16C
100
AcDbEntity
  8
SOLIDO_FINALE
  6
CONTINUOUS
 62
        15
100
AcDbVertex
100
AcDb3dPolylineVertex
 10
20.5753580761
 20
-51.8592021566
 30
23.7572624663
 70
        32
  0
VERTEX
  5
16E
100
AcDbEntity
  8
SOLIDO_FINALE
  6
CONTINUOUS
 62
        15
100
AcDbVertex
100
AcDb3dPolylineVertex
 10
20.6078836784
 20
-51.8629068407
 30
23.7225988309
 70
        32
  0
VERTEX
  5
170
100
AcDbEntity
  8
SOLIDO_FINALE
  6
CONTINUOUS
 62
        15
100
AcDbVertex
100
AcDb3dPolylineVertex
 10
20.639875054
 20
-51.8666232055
 30
23.6870233717
 70
        32
  0
VERTEX
  5
172
100
AcDbEntity
  8
SOLIDO_FINALE
  6
CONTINUOUS
 62
        15
100
AcDbVertex
100
AcDb3dPolylineVertex
 10
20.6712912506
 20
-51.8703422564
 30
23.6505601089
 70
        32
  0
VERTEX
  5
174
100
AcDbEntity
  8
SOLIDO_FINALE
  6
CONTINUOUS
 62
        15
100
AcDbVertex
100
AcDb3dPolylineVertex
 10
20.7020913157
 20
-51.8740549986
 30
23.6132330627
 70
        32
  0
VERTEX
  5
176
100
AcDbEntity
  8
SOLIDO_FINALE
  6
CONTINUOUS
 62
        15
100
AcDbVertex
100
AcDb3dPolylineVertex
 10
20.7322342968
 20
-51.8777524373
 30
23.5750662533
 70
        32
  0
VERTEX
  5
178
100
AcDbEntity
  8
SOLIDO_FINALE
  6
CONTINUOUS
 62
        15
100
AcDbVertex
100
AcDb3dPolylineVertex
 10
20.7616792414
 20
-51.8814255777
 30
23.536083701
 70
        32
  0
VERTEX
  5
17A
100
AcDbEntity
  8
SOLIDO_FINALE
  6
CONTINUOUS
 62
        15
100
AcDbVertex
100
AcDb3dPolylineVertex
 10
20.7903851972
 20
-51.8850654253
 30
23.4963094259
 70
        32
  0
VERTEX
  5
17C
100
AcDbEntity
  8
SOLIDO_FINALE
  6
CONTINUOUS
 62
        15
100
AcDbVertex
100
AcDb3dPolylineVertex
 10
20.8183112115
 20
-51.8886629852
 30
23.4557674483
 70
        32
  0
VERTEX
  5
17E
100
AcDbEntity
  8
SOLIDO_FINALE
  6
CONTINUOUS
 62
        15
100
AcDbVertex
100
AcDb3dPolylineVertex
 10
20.8454194684
 20
-51.8922086139
 30
23.4144838413
 70
        32
  0
VERTEX
  5
180
100
AcDbEntity
  8
SOLIDO_FINALE
  6
CONTINUOUS
 62
        15
100
AcDbVertex
100
AcDb3dPolylineVertex
 10
20.8716830773
 20
-51.8956933307
 30
23.3724920847
 70
        32
  0
VERTEX
  5
182
100
AcDbEntity
  8
SOLIDO_FINALE
  6
CONTINUOUS
 62
        15
100
AcDbVertex
100
AcDb3dPolylineVertex
 10
20.8970774742
 20
-51.8991091348
 30
23.3298273089
 70
        32
  0
VERTEX
  5
184
100
AcDbEntity
  8
SOLIDO_FINALE
  6
CONTINUOUS
 62
        15
100
AcDbVertex
100
AcDb3dPolylineVertex
 10
20.9215780952
 20
-51.9024480255
 30
23.2865246442
 70
        32
  0
VERTEX
  5
186
100
AcDbEntity
  8
SOLIDO_FINALE
  6
CONTINUOUS
 62
        15
100
AcDbVertex
100
AcDb3dPolylineVertex
 10
20.9451603763
 20
-51.9057020021
 30
23.2426192209
 70
        32
  0
VERTEX
  5
188
100
AcDbEntity
  8
SOLIDO_FINALE
  6
CONTINUOUS
 62
        15
100
AcDbVertex
100
AcDb3dPolylineVertex
 10
20.9677997537
 20
-51.9088630638
 30
23.1981461692
 70
        32
  0
VERTEX
  5
18A
100
AcDbEntity
  8
SOLIDO_FINALE
  6
CONTINUOUS
 62
        15
100
AcDbVertex
100
AcDb3dPolylineVertex
 10
20.9894716633
 20
-51.9119232098
 30
23.1531406196
 70
        32
  0
VERTEX
  5
18C
100
AcDbEntity
  8
SOLIDO_FINALE
  6
CONTINUOUS
 62
        15
100
AcDbVertex
100
AcDb3dPolylineVertex
 10
21.0101515413
 20
-51.9148744395
 30
23.1076377023
 70
        32
  0
VERTEX
  5
18E
100
AcDbEntity
  8
SOLIDO_FINALE
  6
CONTINUOUS
 62
        15
100
AcDbVertex
100
AcDb3dPolylineVertex
 10
21.0298148236
 20
-51.917708752
 30
23.0616725476
 70
        32
  0
VERTEX
  5
190
100
AcDbEntity
  8
SOLIDO_FINALE
  6
CONTINUOUS
 62
        15
100
AcDbVertex
100
AcDb3dPolylineVertex
 10
21.0484430743
 20
-51.9204186355
 30
23.0152731361
 70
        32
  0
VERTEX
  5
192
100
AcDbEntity
  8
SOLIDO_FINALE
  6
CONTINUOUS
 62
        15
100
AcDbVertex
100
AcDb3dPolylineVertex
 10
21.0660288275
 20
-51.9229989121
 30
22.968472192
 70
        32
  0
VERTEX
  5
194
100
AcDbEntity
  8
SOLIDO_FINALE
  6
CONTINUOUS
 62
        15
100
AcDbVertex
100
AcDb3dPolylineVertex
 10
21.0825639745
 20
-51.9254450827
 30
22.9213119613
 70
        32
  0
VERTEX
  5
196
100
AcDbEntity
  8
SOLIDO_FINALE
  6
CONTINUOUS
 62
        15
100
AcDbVertex
100
AcDb3dPolylineVertex
 10
21.0980404067
 20
-51.927752648
 30
22.8738346901
 70
        32
  0
VERTEX
  5
198
100
AcDbEntity
  8
SOLIDO_FINALE
  6
CONTINUOUS
 62
        15
100
AcDbVertex
100
AcDb3dPolylineVertex
 10
21.1124500154
 20
-51.9299171086
 30
22.8260826244
 70
        32
  0
VERTEX
  5
19A
100
AcDbEntity
  8
SOLIDO_FINALE
  6
CONTINUOUS
 62
        15
100
AcDbVertex
100
AcDb3dPolylineVertex
 10
21.1257846919
 20
-51.9319339655
 30
22.7780980103
 70
        32
  0
VERTEX
  5
19C
100
AcDbEntity
  8
SOLIDO_FINALE
  6
CONTINUOUS
 62
        15
100
AcDbVertex
100
AcDb3dPolylineVertex
 10
21.1380363276
 20
-51.9337987191
 30
22.7299230938
 70
        32
  0
VERTEX
  5
19E
100
AcDbEntity
  8
SOLIDO_FINALE
  6
CONTINUOUS
 62
        15
100
AcDbVertex
100
AcDb3dPolylineVertex
 10
21.1491968137
 20
-51.9355068704
 30
22.681600121
 70
        32
  0
VERTEX
  5
1A0
100
AcDbEntity
  8
SOLIDO_FINALE
  6
CONTINUOUS
 62
        15
100
AcDbVertex
100
AcDb3dPolylineVertex
 10
21.1592580416
 20
-51.9370539201
 30
22.6331713379
 70
        32
  0
VERTEX
  5
1A2
100
AcDbEntity
  8
SOLIDO_FINALE
  6
CONTINUOUS
 62
        15
100
AcDbVertex
100
AcDb3dPolylineVertex
 10
21.1682146899
 20
-51.9384360075
 30
22.5846795566
 70
        32
  0
VERTEX
  5
1A4
100
AcDbEntity
  8
SOLIDO_FINALE
  6
CONTINUOUS
 62
        15
100
AcDbVertex
100
AcDb3dPolylineVertex
 10
21.176074515
 20
-51.939652759
 30
22.5361702605
 70
        32
  0
VERTEX
  5
1A6
100
AcDbEntity
  8
SOLIDO_FINALE
  6
CONTINUOUS
 62
        15
100
AcDbVertex
100
AcDb3dPolylineVertex
 10
21.1828490252
 20
-51.9407049055
 30
22.4876897022
 70
        32
  0
VERTEX
  5
1A8
100
AcDbEntity
  8
SOLIDO_FINALE
  6
CONTINUOUS
 62
        15
100
AcDbVertex
100
AcDb3dPolylineVertex
 10
21.188549729
 20
-51.9415931779
 30
22.4392841346
 70
        32
  0
VERTEX
  5
1AA
100
AcDbEntity
  8
SOLIDO_FINALE
  6
CONTINUOUS
 62
        15
100
AcDbVertex
100
AcDb3dPolylineVertex
 10
21.1931881346
 20
-51.9423183071
 30
22.3909998102
 70
        32
  0
VERTEX
  5
1AC
100
AcDbEntity
  8
SOLIDO_FINALE
  6
CONTINUOUS
 62
        15
100
AcDbVertex
100
AcDb3dPolylineVertex
 10
21.1967757503
 20
-51.9428810241
 30
22.3428829818
 70
        32
  0
VERTEX
  5
1AE
100
AcDbEntity
  8
SOLIDO_FINALE
  6
CONTINUOUS
 62
        15
100
AcDbVertex
100
AcDb3dPolylineVertex
 10
21.1993240846
 20
-51.9432820599
 30
22.2949799022
 70
        32
  0
VERTEX
  5
1B0
100
AcDbEntity
  8
SOLIDO_FINALE
  6
CONTINUOUS
 62
        15
100
AcDbVertex
100
AcDb3dPolylineVertex
 10
21.2008446458
 20
-51.9435221454
 30
22.247336824
 70
        32
  0
VERTEX
  5
1B2
100
AcDbEntity
  8
SOLIDO_FINALE
  6
CONTINUOUS
 62
        15
100
AcDbVertex
100
AcDb3dPolylineVertex
 10
21.2013489421
 20
-51.9436020114
 30
22.2
 70
        32
  0
VERTEX
  5
1B4
100
AcDbEntity
  8
SOLIDO_FINALE
  6
CONTINUOUS
 62
        15
100
AcDbVertex
100
AcDb3dPolylineVertex
 10
21.2008446458
 20
-51.9435221454
 30
22.152663176
 70
        32
  0
VERTEX
  5
1B6
100
AcDbEntity
  8
SOLIDO_FINALE
  6
CONTINUOUS
 62
        15
100
AcDbVertex
100
AcDb3dPolylineVertex
 10
21.1993240846
 20
-51.9432820599
 30
22.1050200978
 70
        32
  0
VERTEX
  5
1B8
100
AcDbEntity
  8
SOLIDO_FINALE
  6
CONTINUOUS
 62
        15
100
AcDbVertex
100
AcDb3dPolylineVertex
 10
21.1967757503
 20
-51.9428810241
 30
22.0571170182
 70
        32
  0
VERTEX
  5
1BA
100
AcDbEntity
  8
SOLIDO_FINALE
  6
CONTINUOUS
 62
        15
100
AcDbVertex
100
AcDb3dPolylineVertex
 10
21.1931881346
 20
-51.9423183071
 30
22.0090001898
 70
        32
  0
VERTEX
  5
1BC
100
AcDbEntity
  8
SOLIDO_FINALE
  6
CONTINUOUS
 62
        15
100
AcDbVertex
100
AcDb3dPolylineVertex
 10
21.188549729
 20
-51.9415931779
 30
21.9607158654
 70
        32
  0
VERTEX
  5
1BE
100
AcDbEntity
  8
SOLIDO_FINALE
  6
CONTINUOUS
 62
        15
100
AcDbVertex
100
AcDb3dPolylineVertex
 10
21.1828490252
 20
-51.9407049055
 30
21.9123102978
 70
        32
  0
VERTEX
  5
1C0
100
AcDbEntity
  8
SOLIDO_FINALE
  6
CONTINUOUS
 62
        15
100
AcDbVertex
100
AcDb3dPolylineVertex
 10
21.176074515
 20
-51.939652759
 30
21.8638297395
 70
        32
  0
VERTEX
  5
1C2
100
AcDbEntity
  8
SOLIDO_FINALE
  6
CONTINUOUS
 62
        15
100
AcDbVertex
100
AcDb3dPolylineVertex
 10
21.1682146899
 20
-51.9384360075
 30
21.8153204434
 70
        32
  0
VERTEX
  5
1C4
100
AcDbEntity
  8
SOLIDO_FINALE
  6
CONTINUOUS
 62
        15
100
AcDbVertex
100
AcDb3dPolylineVertex
 10
21.1592580416
 20
-51.9370539201
 30
21.7668286621
 70
        32
  0
VERTEX
  5
1C6
100
AcDbEntity
  8
SOLIDO_FINALE
  6
CONTINUOUS
 62
        15
100
AcDbVertex
100
AcDb3dPolylineVertex
 10
21.1491968137
 20
-51.9355068704
 30
21.718399879
 70
        32
  0
VERTEX
  5
1C8
100
AcDbEntity
  8
SOLIDO_FINALE
  6
CONTINUOUS
 62
        15
100
AcDbVertex
100
AcDb3dPolylineVertex
 10
21.1380363276
 20
-51.9337987191
 30
21.6700769062
 70
        32
  0
VERTEX
  5
1CA
100
AcDbEntity
  8
SOLIDO_FINALE
  6
CONTINUOUS
 62
        15
100
AcDbVertex
100
AcDb3dPolylineVertex
 10
21.1257846919
 20
-51.9319339655
 30
21.6219019897
 70
        32
  0
VERTEX
  5
1CC
100
AcDbEntity
  8
SOLIDO_FINALE
  6
CONTINUOUS
 62
        15
100
AcDbVertex
100
AcDb3dPolylineVertex
 10
21.1124500154
 20
-51.9299171086
 30
21.5739173756
 70
        32
  0
VERTEX
  5
1CE
100
AcDbEntity
  8
SOLIDO_FINALE
  6
CONTINUOUS
 62
        15
100
AcDbVertex
100
AcDb3dPolylineVertex
 10
21.0980404067
 20
-51.927752648
 30
21.5261653099
 70
        32
  0
VERTEX
  5
1D0
100
AcDbEntity
  8
SOLIDO_FINALE
  6
CONTINUOUS
 62
        15
100
AcDbVertex
100
AcDb3dPolylineVertex
 10
21.0825639745
 20
-51.9254450827
 30
21.4786880387
 70
        32
  0
VERTEX
  5
1D2
100
AcDbEntity
  8
SOLIDO_FINALE
  6
CONTINUOUS
 62
        15
100
AcDbVertex
100
AcDb3dPolylineVertex
 10
21.0660288275
 20
-51.9229989121
 30
21.431527808
 70
        32
  0
VERTEX
  5
1D4
100
AcDbEntity
  8
SOLIDO_FINALE
  6
CONTINUOUS
 62
        15
100
AcDbVertex
100
AcDb3dPolylineVertex
 10
21.0484430743
 20
-51.9204186355
 30
21.3847268639
 70
        32
  0
VERTEX
  5
1D6
100
AcDbEntity
  8
SOLIDO_FINALE
  6
CONTINUOUS
 62
        15
100
AcDbVertex
100
AcDb3dPolylineVertex
 10
21.0298148236
 20
-51.917708752
 30
21.3383274524
 70
        32
  0
VERTEX
  5
1D8
100
AcDbEntity
  8
SOLIDO_FINALE
  6
CONTINUOUS
 62
        15
100
AcDbVertex
100
AcDb3dPolylineVertex
 10
21.0101515413
 20
-51.9148744395
 30
21.2923622977
 70
        32
  0
VERTEX
  5
1DA
100
AcDbEntity
  8
SOLIDO_FINALE
  6
CONTINUOUS
 62
        15
100
AcDbVertex
100
AcDb3dPolylineVertex
 10
20.9894716633
 20
-51.9119232098
 30
21.2468593804
 70
        32
  0
VERTEX
  5
1DC
100
AcDbEntity
  8
SOLIDO_FINALE
  6
CONTINUOUS
 62
        15
100
AcDbVertex
100
AcDb3dPolylineVertex
 10
20.9677997537
 20
-51.9088630638
 30
21.2018538308
 70
        32
  0
VERTEX
  5
1DE
100
AcDbEntity
  8
SOLIDO_FINALE
  6
CONTINUOUS
 62
        15
100
AcDbVertex
100
AcDb3dPolylineVertex
 10
20.9451603763
 20
-51.9057020021
 30
21.1573807791
 70
        32
  0
VERTEX
  5
1E0
100
AcDbEntity
  8
SOLIDO_FINALE
  6
CONTINUOUS
 62
        15
100
AcDbVertex
100
AcDb3dPolylineVertex
 10
20.9215780952
 20
-51.9024480255
 30
21.1134753558
 70
        32
  0
VERTEX
  5
1E2
100
AcDbEntity
  8
SOLIDO_FINALE
  6
CONTINUOUS
 62
        15
100
AcDbVertex
100
AcDb3dPolylineVertex
 10
20.8970774742
 20
-51.8991091348
 30
21.0701726911
 70
        32
  0
VERTEX
  5
1E4
100
AcDbEntity
  8
SOLIDO_FINALE
  6
CONTINUOUS
 62
        15
100
AcDbVertex
100
AcDb3dPolylineVertex
 10
20.8716830773
 20
-51.8956933307
 30
21.0275079153
 70
        32
  0
VERTEX
  5
1E6
100
AcDbEntity
  8
SOLIDO_FINALE
  6
CONTINUOUS
 62
        15
100
AcDbVertex
100
AcDb3dPolylineVertex
 10
20.8454194684
 20
-51.8922086139
 30
20.9855161587
 70
        32
  0
VERTEX
  5
1E8
100
AcDbEntity
  8
SOLIDO_FINALE
  6
CONTINUOUS
 62
        15
100
AcDbVertex
100
AcDb3dPolylineVertex
 10
20.8183112115
 20
-51.8886629852
 30
20.9442325517
 70
        32
  0
VERTEX
  5
1EA
100
AcDbEntity
  8
SOLIDO_FINALE
  6
CONTINUOUS
 62
        15
100
AcDbVertex
100
AcDb3dPolylineVertex
 10
20.7903851972
 20
-51.8850654253
 30
20.9036905741
 70
        32
  0
VERTEX
  5
1EC
100
AcDbEntity
  8
SOLIDO_FINALE
  6
CONTINUOUS
 62
        15
100
AcDbVertex
100
AcDb3dPolylineVertex
 10
20.7616792414
 20
-51.8814255777
 30
20.863916299
 70
        32
  0
VERTEX
  5
1EE
100
AcDbEntity
  8
SOLIDO_FINALE
  6
CONTINUOUS
 62
        15
100
AcDbVertex
100
AcDb3dPolylineVertex
 10
20.7322342968
 20
-51.8777524373
 30
20.8249337467
 70
        32
  0
VERTEX
  5
1F0
100
AcDbEntity
  8
SOLIDO_FINALE
  6
CONTINUOUS
 62
        15
100
AcDbVertex
100
AcDb3dPolylineVertex
 10
20.7020913157
 20
-51.8740549986
 30
20.7867669373
 70
        32
  0
VERTEX
  5
1F2
100
AcDbEntity
  8
SOLIDO_FINALE
  6
CONTINUOUS
 62
        15
100
AcDbVertex
100
AcDb3dPolylineVertex
 10
20.6712912506
 20
-51.8703422564
 30
20.7494398911
 70
        32
  0
VERTEX
  5
1F4
100
AcDbEntity
  8
SOLIDO_FINALE
  6
CONTINUOUS
 62
        15
100
AcDbVertex
100
AcDb3dPolylineVertex
 10
20.639875054
 20
-51.8666232055
 30
20.7129766283
 70
        32
  0
VERTEX
  5
1F6
100
AcDbEntity
  8
SOLIDO_FINALE
  6
CONTINUOUS
 62
        15
100
AcDbVertex
100
AcDb3dPolylineVertex
 10
20.6078836784
 20
-51.8629068407
 30
20.6774011691
 70
        32
  0
VERTEX
  5
1F8
100
AcDbEntity
  8
SOLIDO_FINALE
  6
CONTINUOUS
 62
        15
100
AcDbVertex
100
AcDb3dPolylineVertex
 10
20.5753580761
 20
-51.8592021566
 30
20.6427375337
 70
        32
  0
VERTEX
  5
1FA
100
AcDbEntity
  8
SOLIDO_FINALE
  6
CONTINUOUS
 62
        15
100
AcDbVertex
100
AcDb3dPolylineVertex
 10
20.5423391997
 20
-51.855518148
 30
20.6090097423
 70
        32
  0
VERTEX
  5
1FC
100
AcDbEntity
  8
SOLIDO_FINALE
  6
CONTINUOUS
 62
        15
100
AcDbVertex
100
AcDb3dPolylineVertex
 10
20.5086120334
 20
-51.8518351972
 30
20.5759914666
 70
        32
  0
VERTEX
  5
1FE
100
AcDbEntity
  8
SOLIDO_FINALE
  6
CONTINUOUS
 62
        15
100
AcDbVertex
100
AcDb3dPolylineVertex
 10
20.4739489423
 20
-51.848133514
 30
20.5434663424
 70
        32
  0
VERTEX
  5
200
100
AcDbEntity
  8
SOLIDO_FINALE
  6
CONTINUOUS
 62
        15
100
AcDbVertex
100
AcDb3dPolylineVertex
 10
20.4383739456
 20
-51.8444220552
 30
20.5114753315
 70
        32
  0
VERTEX
  5
202
100
AcDbEntity
  8
SOLIDO_FINALE
  6
CONTINUOUS
 62
        15
100
AcDbVertex
100
AcDb3dPolylineVertex
 10
20.4019110621
 20
-51.8407097774
 30
20.4800593953
 70
        32
  0
VERTEX
  5
204
100
AcDbEntity
  8
SOLIDO_FINALE
  6
CONTINUOUS
 62
        15
100
AcDbVertex
100
AcDb3dPolylineVertex
 10
20.3645843109
 20
-51.8370056374
 30
20.4492594955
 70
        32
  0
VERTEX
  5
206
100
AcDbEntity
  8
SOLIDO_FINALE
  6
CONTINUOUS
 62
        15
100
AcDbVertex
100
AcDb3dPolylineVertex
 10
20.326417711
 20
-51.8333185918
 30
20.4191165936
 70
        32
  0
VERTEX
  5
208
100
AcDbEntity
  8
SOLIDO_FINALE
  6
CONTINUOUS
 62
        15
100
AcDbVertex
100
AcDb3dPolylineVertex
 10
20.2874352813
 20
-51.8296575973
 30
20.3896716513
 70
        32
  0
VERTEX
  5
20A
100
AcDbEntity
  8
SOLIDO_FINALE
  6
CONTINUOUS
 62
        15
100
AcDbVertex
100
AcDb3dPolylineVertex
 10
20.247661041
 20
-51.8260316105
 30
20.3609656302
 70
        32
  0
VERTEX
  5
20C
100
AcDbEntity
  8
SOLIDO_FINALE
  6
CONTINUOUS
 62
        15
100
AcDbVertex
100
AcDb3dPolylineVertex
 10
20.2071190088
 20
-51.8224495882
 30
20.3330394917
 70
        32
  0
VERTEX
  5
20E
100
AcDbEntity
  8
SOLIDO_FINALE
  6
CONTINUOUS
 62
        15
100
AcDbVertex
100
AcDb3dPolylineVertex
 10
20.1658352588
 20
-51.8189210889
 30
20.3059310649
 70
        32
  0
VERTEX
  5
210
100
AcDbEntity
  8
SOLIDO_FINALE
  6
CONTINUOUS
 62
        15
100
AcDbVertex
100
AcDb3dPolylineVertex
 10
20.1238432793
 20
-51.8154549201
 30
20.2796672524
 70
        32
  0
VERTEX
  5
212
100
AcDbEntity
  8
SOLIDO_FINALE
  6
CONTINUOUS
 62
        15
100
AcDbVertex
100
AcDb3dPolylineVertex
 10
20.0811782109
 20
-51.8120589116
 30
20.2542726265
 70
        32
  0
VERTEX
  5
214
100
AcDbEntity
  8
SOLIDO_FINALE
  6
CONTINUOUS
 62
        15
100
AcDbVertex
100
AcDb3dPolylineVertex
 10
20.0378751946
 20
-51.8087408936
 30
20.2297717596
 70
        32
  0
VERTEX
  5
216
100
AcDbEntity
  8
SOLIDO_FINALE
  6
CONTINUOUS
 62
        15
100
AcDbVertex
100
AcDb3dPolylineVertex
 10
19.993969371
 20
-51.805508696
 30
20.2061892239
 70
        32
  0
VERTEX
  5
218
100
AcDbEntity
  8
SOLIDO_FINALE
  6
CONTINUOUS
 62
        15
100
AcDbVertex
100
AcDb3dPolylineVertex
 10
19.949495881
 20
-51.8023701488
 30
20.1835495919
 70
        32
  0
VERTEX
  5
21A
100
AcDbEntity
  8
SOLIDO_FINALE
  6
CONTINUOUS
 62
        15
100
AcDbVertex
100
AcDb3dPolylineVertex
 10
19.9044898652
 20
-51.799333082
 30
20.1618774357
 70
        32
  0
VERTEX
  5
21C
100
AcDbEntity
  8
SOLIDO_FINALE
  6
CONTINUOUS
 62
        15
100
AcDbVertex
100
AcDb3dPolylineVertex
 10
19.8589864645
 20
-51.7964053257
 30
20.1411973279
 70
        32
  0
VERTEX
  5
21E
100
AcDbEntity
  8
SOLIDO_FINALE
  6
CONTINUOUS
 62
        15
100
AcDbVertex
100
AcDb3dPolylineVertex
 10
19.8130208196
 20
-51.7935947099
 30
20.1215338407
 70
        32
  0
VERTEX
  5
220
100
AcDbEntity
  8
SOLIDO_FINALE
  6
CONTINUOUS
 62
        15
100
AcDbVertex
100
AcDb3dPolylineVertex
 10
19.7666209226
 20
-51.7909085327
 30
20.1029054176
 70
        32
  0
VERTEX
  5
222
100
AcDbEntity
  8
SOLIDO_FINALE
  6
CONTINUOUS
 62
        15
100
AcDbVertex
100
AcDb3dPolylineVertex
 10
19.7198195087
 20
-51.7883517565
 30
20.0853195256
 70
        32
  0
VERTEX
  5
224
100
AcDbEntity
  8
SOLIDO_FINALE
  6
CONTINUOUS
 62
        15
100
AcDbVertex
100
AcDb3dPolylineVertex
 10
19.6726588331
 20
-51.7859287075
 30
20.0687842721
 70
        32
  0
VERTEX
  5
226
100
AcDbEntity
  8
SOLIDO_FINALE
  6
CONTINUOUS
 62
        15
100
AcDbVertex
100
AcDb3dPolylineVertex
 10
19.6251811509
 20
-51.7836437119
 30
20.0533077645
 70
        32
  0
VERTEX
  5
228
100
AcDbEntity
  8
SOLIDO_FINALE
  6
CONTINUOUS
 62
        15
100
AcDbVertex
100
AcDb3dPolylineVertex
 10
19.5774287176
 20
-51.7815010958
 30
20.0388981102
 70
        32
  0
VERTEX
  5
22A
100
AcDbEntity
  8
SOLIDO_FINALE
  6
CONTINUOUS
 62
        15
100
AcDbVertex
100
AcDb3dPolylineVertex
 10
19.5294437883
 20
-51.7795051855
 30
20.0255634165
 70
        32
  0
VERTEX
  5
22C
100
AcDbEntity
  8
SOLIDO_FINALE
  6
CONTINUOUS
 62
        15
100
AcDbVertex
100
AcDb3dPolylineVertex
 10
19.4812686181
 20
-51.7776603072
 30
20.013311791
 70
        32
  0
VERTEX
  5
22E
100
AcDbEntity
  8
SOLIDO_FINALE
  6
CONTINUOUS
 62
        15
100
AcDbVertex
100
AcDb3dPolylineVertex
 10
19.4329454624
 20
-51.775970787
 30
20.002151341
 70
        32
  0
VERTEX
  5
230
100
AcDbEntity
  8
SOLIDO_FINALE
  6
CONTINUOUS
 62
        15
100
AcDbVertex
100
AcDb3dPolylineVertex
 10
19.3845165765
 20
-51.7744409512
 30
19.9920901738
 70
        32
  0
VERTEX
  5
232
100
AcDbEntity
  8
SOLIDO_FINALE
  6
CONTINUOUS
 62
        15
100
AcDbVertex
100
AcDb3dPolylineVertex
 10
19.3360247818
 20
-51.7730744828
 30
19.9831336079
 70
        32
  0
VERTEX
  5
234
100
AcDbEntity
  8
SOLIDO_FINALE
  6
CONTINUOUS
 62
        15
100
AcDbVertex
100
AcDb3dPolylineVertex
 10
19.287515568
 20
-51.7718716662
 30
19.9752738802
 70
        32
  0
VERTEX
  5
236
100
AcDbEntity
  8
SOLIDO_FINALE
  6
CONTINUOUS
 62
        15
100
AcDbVertex
100
AcDb3dPolylineVertex
 10
19.2390351924
 20
-51.7708317296
 30
19.9684994756
 70
        32
  0
VERTEX
  5
238
100
AcDbEntity
  8
SOLIDO_FINALE
  6
CONTINUOUS
 62
        15
100
AcDbVertex
100
AcDb3dPolylineVertex
 10
19.1906299121
 20
-51.7699539011
 30
19.9627988792
 70
        32
  0
VERTEX
  5
23A
100
AcDbEntity
  8
SOLIDO_FINALE
  6
CONTINUOUS
 62
        15
100
AcDbVertex
100
AcDb3dPolylineVertex
 10
19.1423459843
 20
-51.7692374087
 30
19.9581605763
 70
        32
  0
VERTEX
  5
23C
100
AcDbEntity
  8
SOLIDO_FINALE
  6
CONTINUOUS
 62
        15
100
AcDbVertex
100
AcDb3dPolylineVertex
 10
19.0942296661
 20
-51.7686814805
 30
19.9545730518
 70
        32
  0
VERTEX
  5
23E
100
AcDbEntity
  8
SOLIDO_FINALE
  6
CONTINUOUS
 62
        15
100
AcDbVertex
100
AcDb3dPolylineVertex
 10
19.0463272149
 20
-51.7682853446
 30
19.9520247909
 70
        32
  0
VERTEX
  5
240
100
AcDbEntity
  8
SOLIDO_FINALE
  6
CONTINUOUS
 62
        15
100
AcDbVertex
100
AcDb3dPolylineVertex
 10
18.9986848878
 20
-51.7680482291
 30
19.9505042786
 70
        32
  0
VERTEX
  5
242
100
AcDbEntity
  8
SOLIDO_FINALE
  6
CONTINUOUS
 62
        15
100
AcDbVertex
100
AcDb3dPolylineVertex
 10
18.9513489421
 20
-51.7679693622
 30
19.95
 70
        32
  0
VERTEX
  5
244
100
AcDbEntity
  8
SOLIDO_FINALE
  6
CONTINUOUS
 62
        15
100
AcDbVertex
100
AcDb3dPolylineVertex
 10
18.9040129963
 20
-51.7680482291
 30
19.9505042786
 70
        32
  0
VERTEX
  5
246
100
AcDbEntity
  8
SOLIDO_FINALE
  6
CONTINUOUS
 62
        15
100
AcDbVertex
100
AcDb3dPolylineVertex
 10
18.8563706692
 20
-51.7682853446
 30
19.9520247909
 70
        32
  0
VERTEX
  5
248
100
AcDbEntity
  8
SOLIDO_FINALE
  6
CONTINUOUS
 62
        15
100
AcDbVertex
100
AcDb3dPolylineVertex
 10
18.808468218
 20
-51.7686814805
 30
19.9545730518
 70
        32
  0
VERTEX
  5
24A
100
AcDbEntity
  8
SOLIDO_FINALE
  6
CONTINUOUS
 62
        15
100
AcDbVertex
100
AcDb3dPolylineVertex
 10
18.7603518999
 20
-51.7692374087
 30
19.9581605763
 70
        32
  0
VERTEX
  5
24C
100
AcDbEntity
  8
SOLIDO_FINALE
  6
CONTINUOUS
 62
        15
100
AcDbVertex
100
AcDb3dPolylineVertex
 10
18.712067972
 20
-51.7699539011
 30
19.9627988792
 70
        32
  0
VERTEX
  5
24E
100
AcDbEntity
  8
SOLIDO_FINALE
  6
CONTINUOUS
 62
        15
100
AcDbVertex
100
AcDb3dPolylineVertex
 10
18.6636626917
 20
-51.7708317296
 30
19.9684994756
 70
        32
  0
VERTEX
  5
250
100
AcDbEntity
  8
SOLIDO_FINALE
  6
CONTINUOUS
 62
        15
100
AcDbVertex
100
AcDb3dPolylineVertex
 10
18.6151823161
 20
-51.7718716662
 30
19.9752738802
 70
        32
  0
VERTEX
  5
252
100
AcDbEntity
  8
SOLIDO_FINALE
  6
CONTINUOUS
 62
        15
100
AcDbVertex
100
AcDb3dPolylineVertex
 10
18.5666731023
 20
-51.7730744828
 30
19.9831336079
 70
        32
  0
VERTEX
  5
254
100
AcDbEntity
  8
SOLIDO_FINALE
  6
CONTINUOUS
 62
        15
100
AcDbVertex
100
AcDb3dPolylineVertex
 10
18.5181813077
 20
-51.7744409512
 30
19.9920901738
 70
        32
  0
VERTEX
  5
256
100
AcDbEntity
  8
SOLIDO_FINALE
  6
CONTINUOUS
 62
        15
100
AcDbVertex
100
AcDb3dPolylineVertex
 10
18.4697524217
 20
-51.775970787
 30
20.002151341
 70
        32
  0
VERTEX
  5
258
100
AcDbEntity
  8
SOLIDO_FINALE
  6
CONTINUOUS
 62
        15
100
AcDbVertex
100
AcDb3dPolylineVertex
 10
18.421429266
 20
-51.7776603072
 30
20.013311791
 70
        32
  0
VERTEX
  5
25A
100
AcDbEntity
  8
SOLIDO_FINALE
  6
CONTINUOUS
 62
        15
100
AcDbVertex
100
AcDb3dPolylineVertex
 10
18.3732540959
 20
-51.7795051855
 30
20.0255634165
 70
        32
  0
VERTEX
  5
25C
100
AcDbEntity
  8
SOLIDO_FINALE
  6
CONTINUOUS
 62
        15
100
AcDbVertex
100
AcDb3dPolylineVertex
 10
18.3252691665
 20
-51.7815010958
 30
20.0388981102
 70
        32
  0
VERTEX
  5
25E
100
AcDbEntity
  8
SOLIDO_FINALE
  6
CONTINUOUS
 62
        15
100
AcDbVertex
100
AcDb3dPolylineVertex
 10
18.2775167332
 20
-51.7836437119
 30
20.0533077645
 70
        32
  0
VERTEX
  5
260
100
AcDbEntity
  8
SOLIDO_FINALE
  6
CONTINUOUS
 62
        15
100
AcDbVertex
100
AcDb3dPolylineVertex
 10
18.2300390511
 20
-51.7859287075
 30
20.0687842721
 70
        32
  0
VERTEX
  5
262
100
AcDbEntity
  8
SOLIDO_FINALE
  6
CONTINUOUS
 62
        15
100
AcDbVertex
100
AcDb3dPolylineVertex
 10
18.1828783754
 20
-51.7883517565
 30
20.0853195256
 70
        32
  0
VERTEX
  5
264
100
AcDbEntity
  8
SOLIDO_FINALE
  6
CONTINUOUS
 62
        15
100
AcDbVertex
100
AcDb3dPolylineVertex
 10
18.1360769615
 20
-51.7909085327
 30
20.1029054176
 70
        32
  0
VERTEX
  5
266
100
AcDbEntity
  8
SOLIDO_FINALE
  6
CONTINUOUS
 62
        15
100
AcDbVertex
100
AcDb3dPolylineVertex
 10
18.0896770646
 20
-51.7935947099
 30
20.1215338407
 70
        32
  0
VERTEX
  5
268
100
AcDbEntity
  8
SOLIDO_FINALE
  6
CONTINUOUS
 62
        15
100
AcDbVertex
100
AcDb3dPolylineVertex
 10
18.0437114197
 20
-51.7964053257
 30
20.1411973279
 70
        32
  0
VERTEX
  5
26A
100
AcDbEntity
  8
SOLIDO_FINALE
  6
CONTINUOUS
 62
        15
100
AcDbVertex
100
AcDb3dPolylineVertex
 10
17.9982080189
 20
-51.799333082
 30
20.1618774357
 70
        32
  0
VERTEX
  5
26C
100
AcDbEntity
  8
SOLIDO_FINALE
  6
CONTINUOUS
 62
        15
100
AcDbVertex
100
AcDb3dPolylineVertex
 10
17.9532020032
 20
-51.8023701488
 30
20.1835495919
 70
        32
  0
VERTEX
  5
26E
100
AcDbEntity
  8
SOLIDO_FINALE
  6
CONTINUOUS
 62
        15
100
AcDbVertex
100
AcDb3dPolylineVertex
 10
17.9087285131
 20
-51.805508696
 30
20.2061892239
 70
        32
  0
VERTEX
  5
270
100
AcDbEntity
  8
SOLIDO_FINALE
  6
CONTINUOUS
 62
        15
100
AcDbVertex
100
AcDb3dPolylineVertex
 10
17.8648226895
 20
-51.8087408936
 30
20.2297717596
 70
        32
  0
VERTEX
  5
272
100
AcDbEntity
  8
SOLIDO_FINALE
  6
CONTINUOUS
 62
        15
100
AcDbVertex
100
AcDb3dPolylineVertex
 10
17.8215196732
 20
-51.8120589116
 30
20.2542726265
 70
        32
  0
VERTEX
  5
274
100
AcDbEntity
  8
SOLIDO_FINALE
  6
CONTINUOUS
 62
        15
100
AcDbVertex
100
AcDb3dPolylineVertex
 10
17.7788546048
 20
-51.8154549201
 30
20.2796672524
 70
        32
  0
VERTEX
  5
276
100
AcDbEntity
  8
SOLIDO_FINALE
  6
CONTINUOUS
 62
        15
100
AcDbVertex
100
AcDb3dPolylineVertex
 10
17.7368626253
 20
-51.8189210889
 30
20.3059310649
 70
        32
  0
VERTEX
  5
278
100
AcDbEntity
  8
SOLIDO_FINALE
  6
CONTINUOUS
 62
        15
100
AcDbVertex
100
AcDb3dPolylineVertex
 10
17.6955788753
 20
-51.8224495882
 30
20.3330394917
 70
        32
  0
VERTEX
  5
27A
100
AcDbEntity
  8
SOLIDO_FINALE
  6
CONTINUOUS
 62
        15
100
AcDbVertex
100
AcDb3dPolylineVertex
 10
17.6550368432
 20
-51.8260316105
 30
20.3609656302
 70
        32
  0
VERTEX
  5
27C
100
AcDbEntity
  8
SOLIDO_FINALE
  6
CONTINUOUS
 62
        15
100
AcDbVertex
100
AcDb3dPolylineVertex
 10
17.6152626028
 20
-51.8296575973
 30
20.3896716513
 70
        32
  0
VERTEX
  5
27E
100
AcDbEntity
  8
SOLIDO_FINALE
  6
CONTINUOUS
 62
        15
100
AcDbVertex
100
AcDb3dPolylineVertex
 10
17.5762801731
 20
-51.8333185918
 30
20.4191165936
 70
        32
  0
VERTEX
  5
280
100
AcDbEntity
  8
SOLIDO_FINALE
  6
CONTINUOUS
 62
        15
100
AcDbVertex
100
AcDb3dPolylineVertex
 10
17.5381135732
 20
-51.8370056374
 30
20.4492594955
 70
        32
  0
VERTEX
  5
282
100
AcDbEntity
  8
SOLIDO_FINALE
  6
CONTINUOUS
 62
        15
100
AcDbVertex
100
AcDb3dPolylineVertex
 10
17.500786822
 20
-51.8407097774
 30
20.4800593953
 70
        32
  0
VERTEX
  5
284
100
AcDbEntity
  8
SOLIDO_FINALE
  6
CONTINUOUS
 62
        15
100
AcDbVertex
100
AcDb3dPolylineVertex
 10
17.4643239386
 20
-51.8444220552
 30
20.5114753315
 70
        32
  0
VERTEX
  5
286
100
AcDbEntity
  8
SOLIDO_FINALE
  6
CONTINUOUS
 62
        15
100
AcDbVertex
100
AcDb3dPolylineVertex
 10
17.4287489418
 20
-51.848133514
 30
20.5434663424
 70
        32
  0
VERTEX
  5
288
100
AcDbEntity
  8
SOLIDO_FINALE
  6
CONTINUOUS
 62
        15
100
AcDbVertex
100
AcDb3dPolylineVertex
 10
17.3940858507
 20
-51.8518351972
 30
20.5759914666
 70
        32
  0
VERTEX
  5
28A
100
AcDbEntity
  8
SOLIDO_FINALE
  6
CONTINUOUS
 62
        15
100
AcDbVertex
100
AcDb3dPolylineVertex
 10
17.3603586844
 20
-51.855518148
 30
20.6090097423
 70
        32
  0
VERTEX
  5
28C
100
AcDbEntity
  8
SOLIDO_FINALE
  6
CONTINUOUS
 62
        15
100
AcDbVertex
100
AcDb3dPolylineVertex
 10
17.327339808
 20
-51.8592021566
 30
20.6427375337
 70
        32
  0
VERTEX
  5
28E
100
AcDbEntity
  8
SOLIDO_FINALE
  6
CONTINUOUS
 62
        15
100
AcDbVertex
100
AcDb3dPolylineVertex
 10
17.2948142057
 20
-51.8629068407
 30
20.6774011691
 70
        32
  0
VERTEX
  5
290
100
AcDbEntity
  8
SOLIDO_FINALE
  6
CONTINUOUS
 62
        15
100
AcDbVertex
100
AcDb3dPolylineVertex
 10
17.2628228301
 20
-51.8666232055
 30
20.7129766283
 70
        32
  0
VERTEX
  5
292
100
AcDbEntity
  8
SOLIDO_FINALE
  6
CONTINUOUS
 62
        15
100
AcDbVertex
100
AcDb3dPolylineVertex
 10
17.2314066335
 20
-51.8703422564
 30
20.7494398911
 70
        32
  0
VERTEX
  5
294
100
AcDbEntity
  8
SOLIDO_FINALE
  6
CONTINUOUS
 62
        15
100
AcDbVertex
100
AcDb3dPolylineVertex
 10
17.2006065684
 20
-51.8740549986
 30
20.7867669373
 70
        32
  0
VERTEX
  5
296
100
AcDbEntity
  8
SOLIDO_FINALE
  6
CONTINUOUS
 62
        15
100
AcDbVertex
100
AcDb3dPolylineVertex
 10
17.1704635873
 20
-51.8777524373
 30
20.8249337467
 70
        32
  0
VERTEX
  5
298
100
AcDbEntity
  8
SOLIDO_FINALE
  6
CONTINUOUS
 62
        15
100
AcDbVertex
100
AcDb3dPolylineVertex
 10
17.1410186427
 20
-51.8814255777
 30
20.863916299
 70
        32
  0
VERTEX
  5
29A
100
AcDbEntity
  8
SOLIDO_FINALE
  6
CONTINUOUS
 62
        15
100
AcDbVertex
100
AcDb3dPolylineVertex
 10
17.112312687
 20
-51.8850654253
 30
20.9036905741
 70
        32
  0
VERTEX
  5
29C
100
AcDbEntity
  8
SOLIDO_FINALE
  6
CONTINUOUS
 62
        15
100
AcDbVertex
100
AcDb3dPolylineVertex
 10
17.0843866726
 20
-51.8886629852
 30
20.9442325517
 70
        32
  0
VERTEX
  5
29E
100
AcDbEntity
  8
SOLIDO_FINALE
  6
CONTINUOUS
 62
        15
100
AcDbVertex
100
AcDb3dPolylineVertex
 10
17.0572784157
 20
-51.8922086139
 30
20.9855161587
 70
        32
  0
VERTEX
  5
2A0
100
AcDbEntity
  8
SOLIDO_FINALE
  6
CONTINUOUS
 62
        15
100
AcDbVertex
100
AcDb3dPolylineVertex
 10
17.0310148069
 20
-51.8956933307
 30
21.0275079153
 70
        32
  0
VERTEX
  5
2A2
100
AcDbEntity
  8
SOLIDO_FINALE
  6
CONTINUOUS
 62
        15
100
AcDbVertex
100
AcDb3dPolylineVertex
 10
17.00562041
 20
-51.8991091348
 30
21.0701726911
 70
        32
  0
VERTEX
  5
2A4
100
AcDbEntity
  8
SOLIDO_FINALE
  6
CONTINUOUS
 62
        15
100
AcDbVertex
100
AcDb3dPolylineVertex
 10
16.981119789
 20
-51.9024480255
 30
21.1134753558
 70
        32
  0
VERTEX
  5
2A6
100
AcDbEntity
  8
SOLIDO_FINALE
  6
CONTINUOUS
 62
        15
100
AcDbVertex
100
AcDb3dPolylineVertex
 10
16.9575375078
 20
-51.9057020021
 30
21.1573807791
 70
        32
  0
VERTEX
  5
2A8
100
AcDbEntity
  8
SOLIDO_FINALE
  6
CONTINUOUS
 62
        15
100
AcDbVertex
100
AcDb3dPolylineVertex
 10
16.9348981304
 20
-51.9088630638
 30
21.2018538308
 70
        32
  0
VERTEX
  5
2AA
100
AcDbEntity
  8
SOLIDO_FINALE
  6
CONTINUOUS
 62
        15
100
AcDbVertex
100
AcDb3dPolylineVertex
 10
16.9132262208
 20
-51.9119232098
 30
21.2468593804
 70
        32
  0
VERTEX
  5
2AC
100
AcDbEntity
  8
SOLIDO_FINALE
  6
CONTINUOUS
 62
        15
100
AcDbVertex
100
AcDb3dPolylineVertex
 10
16.8925463429
 20
-51.9148744395
 30
21.2923622977
 70
        32
  0
VERTEX
  5
2AE
100
AcDbEntity
  8
SOLIDO_FINALE
  6
CONTINUOUS
 62
        15
100
AcDbVertex
100
AcDb3dPolylineVertex
 10
16.8728830605
 20
-51.917708752
 30
21.3383274524
 70
        32
  0
VERTEX
  5
2B0
100
AcDbEntity
  8
SOLIDO_FINALE
  6
CONTINUOUS
 62
        15
100
AcDbVertex
100
AcDb3dPolylineVertex
 10
16.8542548099
 20
-51.9204186355
 30
21.3847268639
 70
        32
  0
VERTEX
  5
2B2
100
AcDbEntity
  8
SOLIDO_FINALE
  6
CONTINUOUS
 62
        15
100
AcDbVertex
100
AcDb3dPolylineVertex
 10
16.8366690567
 20
-51.9229989121
 30
21.431527808
 70
        32
  0
VERTEX
  5
2B4
100
AcDbEntity
  8
SOLIDO_FINALE
  6
CONTINUOUS
 62
        15
100
AcDbVertex
100
AcDb3dPolylineVertex
 10
16.8201339096
 20
-51.9254450827
 30
21.4786880387
 70
        32
  0
VERTEX
  5
2B6
100
AcDbEntity
  8
SOLIDO_FINALE
  6
CONTINUOUS
 62
        15
100
AcDbVertex
100
AcDb3dPolylineVertex
 10
16.8046574774
 20
-51.927752648
 30
21.5261653099
 70
        32
  0
VERTEX
  5
2B8
100
AcDbEntity
  8
SOLIDO_FINALE
  6
CONTINUOUS
 62
        15
100
AcDbVertex
100
AcDb3dPolylineVertex
 10
16.7902478687
 20
-51.9299171086
 30
21.5739173756
 70
        32
  0
VERTEX
  5
2BA
100
AcDbEntity
  8
SOLIDO_FINALE
  6
CONTINUOUS
 62
        15
100
AcDbVertex
100
AcDb3dPolylineVertex
 10
16.7769131922
 20
-51.9319339655
 30
21.6219019897
 70
        32
  0
VERTEX
  5
2BC
100
AcDbEntity
  8
SOLIDO_FINALE
  6
CONTINUOUS
 62
        15
100
AcDbVertex
100
AcDb3dPolylineVertex
 10
16.7646615565
 20
-51.9337987191
 30
21.6700769062
 70
        32
  0
VERTEX
  5
2BE
100
AcDbEntity
  8
SOLIDO_FINALE
  6
CONTINUOUS
 62
        15
100
AcDbVertex
100
AcDb3dPolylineVertex
 10
16.7535010704
 20
-51.9355068704
 30
21.718399879
 70
        32
  0
VERTEX
  5
2C0
100
AcDbEntity
  8
SOLIDO_FINALE
  6
CONTINUOUS
 62
        15
100
AcDbVertex
100
AcDb3dPolylineVertex
 10
16.7434398425
 20
-51.9370539201
 30
21.7668286621
 70
        32
  0
VERTEX
  5
2C2
100
AcDbEntity
  8
SOLIDO_FINALE
  6
CONTINUOUS
 62
        15
100
AcDbVertex
100
AcDb3dPolylineVertex
 10
16.7344831942
 20
-51.9384360075
 30
21.8153204434
 70
        32
  0
VERTEX
  5
2C4
100
AcDbEntity
  8
SOLIDO_FINALE
  6
CONTINUOUS
 62
        15
100
AcDbVertex
100
AcDb3dPolylineVertex
 10
16.7266233692
 20
-51.939652759
 30
21.8638297395
 70
        32
  0
VERTEX
  5
2C6
100
AcDbEntity
  8
SOLIDO_FINALE
  6
CONTINUOUS
 62
        15
100
AcDbVertex
100
AcDb3dPolylineVertex
 10
16.7198488589
 20
-51.9407049055
 30
21.9123102978
 70
        32
  0
VERTEX
  5
2C8
100
AcDbEntity
  8
SOLIDO_FINALE
  6
CONTINUOUS
 62
        15
100
AcDbVertex
100
AcDb3dPolylineVertex
 10
16.7141481552
 20
-51.9415931779
 30
21.9607158654
 70
        32
  0
VERTEX
  5
2CA
100
AcDbEntity
  8
SOLIDO_FINALE
  6
CONTINUOUS
 62
        15
100
AcDbVertex
100
AcDb3dPolylineVertex
 10
16.7095097496
 20
-51.9423183071
 30
22.0090001898
 70
        32
  0
VERTEX
  5
2CC
100
AcDbEntity
  8
SOLIDO_FINALE
  6
CONTINUOUS
 62
        15
100
AcDbVertex
100
AcDb3dPolylineVertex
 10
16.7059221338
 20
-51.9428810241
 30
22.0571170182
 70
        32
  0
VERTEX
  5
2CE
100
AcDbEntity
  8
SOLIDO_FINALE
  6
CONTINUOUS
 62
        15
100
AcDbVertex
100
AcDb3dPolylineVertex
 10
16.7033737995
 20
-51.9432820599
 30
22.1050200978
 70
        32
  0
VERTEX
  5
2D0
100
AcDbEntity
  8
SOLIDO_FINALE
  6
CONTINUOUS
 62
        15
100
AcDbVertex
100
AcDb3dPolylineVertex
 10
16.7018532384
 20
-51.9435221454
 30
22.152663176
 70
        32
  0
VERTEX
  5
2D2
100
AcDbEntity
  8
SOLIDO_FINALE
  6
CONTINUOUS
 62
        15
100
AcDbVertex
100
AcDb3dPolylineVertex
 10
16.7013489421
 20
-51.9436020114
 30
22.2
 70
        32
  0
SEQEND
  5
2D4
100
AcDbEntity
  8
SOLIDO_FINALE
  6
CONTINUOUS
 62
        15
  0
POLYLINE
  5
2D6
100
AcDbEntity
  8
SOLIDO_FINALE
  6
CONTINUOUS
 62
        15
100
AcDb3dPolyline
 66
         1
 10
0.0
 20
0.0
 30
22.2
 70
         8
  0
VERTEX
  5
2D8
100
AcDbEntity
  8
SOLIDO_FINALE
  6
CONTINUOUS
 62
        15
100
AcDbVertex
100
AcDb3dPolylineVertex
 10
16.7013489421
 20
-49.9220983239
 30
22.2
 70
        32
  0
VERTEX
  5
2DA
100
AcDbEntity
  8
SOLIDO_FINALE
  6
CONTINUOUS
 62
        15
100
AcDbVertex
100
AcDb3dPolylineVertex
 10
16.7018528443
 20
-49.9220283926
 30
22.15268163
 70
        32
  0
VERTEX
  5
2DC
100
AcDbEntity
  8
SOLIDO_FINALE
  6
CONTINUOUS
 62
        15
100
AcDbVertex
100
AcDb3dPolylineVertex
 10
16.7033722715
 20
-49.9218181609
 30
22.105055845
 70
        32
  0
VERTEX
  5
2DE
100
AcDbEntity
  8
SOLIDO_FINALE
  6
CONTINUOUS
 62
        15
100
AcDbVertex
100
AcDb3dPolylineVertex
 10
16.7059188043
 20
-49.9214669725
 30
22.0571688807
 70
        32
  0
VERTEX
  5
2E0
100
AcDbEntity
  8
SOLIDO_FINALE
  6
CONTINUOUS
 62
        15
100
AcDbVertex
100
AcDb3dPolylineVertex
 10
16.7095040236
 20
-49.9209741709
 30
22.0090669726
 70
        32
  0
VERTEX
  5
2E2
100
AcDbEntity
  8
SOLIDO_FINALE
  6
CONTINUOUS
 62
        15
100
AcDbVertex
100
AcDb3dPolylineVertex
 10
16.71413951
 20
-49.9203390996
 30
21.9607963564
 70
        32
  0
VERTEX
  5
2E4
100
AcDbEntity
  8
SOLIDO_FINALE
  6
CONTINUOUS
 62
        15
100
AcDbVertex
100
AcDb3dPolylineVertex
 10
16.7198368443
 20
-49.9195611023
 30
21.9124032677
 70
        32
  0
VERTEX
  5
2E6
100
AcDbEntity
  8
SOLIDO_FINALE
  6
CONTINUOUS
 62
        15
100
AcDbVertex
100
AcDb3dPolylineVertex
 10
16.7266076072
 20
-49.9186395223
 30
21.8639339422
 70
        32
  0
VERTEX
  5
2E8
100
AcDbEntity
  8
SOLIDO_FINALE
  6
CONTINUOUS
 62
        15
100
AcDbVertex
100
AcDb3dPolylineVertex
 10
16.7344633795
 20
-49.9175737034
 30
21.8154346156
 70
        32
  0
VERTEX
  5
2EA
100
AcDbEntity
  8
SOLIDO_FINALE
  6
CONTINUOUS
 62
        15
100
AcDbVertex
100
AcDb3dPolylineVertex
 10
16.7434157418
 20
-49.916362989
 30
21.7669515233
 70
        32
  0
VERTEX
  5
2EC
100
AcDbEntity
  8
SOLIDO_FINALE
  6
CONTINUOUS
 62
        15
100
AcDbVertex
100
AcDb3dPolylineVertex
 10
16.7534725309
 20
-49.9150076849
 30
21.7185301414
 70
        32
  0
VERTEX
  5
2EE
100
AcDbEntity
  8
SOLIDO_FINALE
  6
CONTINUOUS
 62
        15
100
AcDbVertex
100
AcDb3dPolylineVertex
 10
16.7646285069
 20
-49.9135111484
 30
21.6702133
 70
        32
  0
VERTEX
  5
2F0
100
AcDbEntity
  8
SOLIDO_FINALE
  6
CONTINUOUS
 62
        15
100
AcDbVertex
100
AcDb3dPolylineVertex
 10
16.7768756359
 20
-49.9118772998
 30
21.6220432667
 70
        32
  0
VERTEX
  5
2F2
100
AcDbEntity
  8
SOLIDO_FINALE
  6
CONTINUOUS
 62
        15
100
AcDbVertex
100
AcDb3dPolylineVertex
 10
16.7902058841
 20
-49.9101100599
 30
21.5740623088
 70
        32
  0
VERTEX
  5
2F4
100
AcDbEntity
  8
SOLIDO_FINALE
  6
CONTINUOUS
 62
        15
100
AcDbVertex
100
AcDb3dPolylineVertex
 10
16.8046112173
 20
-49.9082133491
 30
21.5263126937
 70
        32
  0
VERTEX
  5
2F6
100
AcDbEntity
  8
SOLIDO_FINALE
  6
CONTINUOUS
 62
        15
100
AcDbVertex
100
AcDb3dPolylineVertex
 10
16.8200836017
 20
-49.9061910881
 30
21.4788366888
 70
        32
  0
VERTEX
  5
2F8
100
AcDbEntity
  8
SOLIDO_FINALE
  6
CONTINUOUS
 62
        15
100
AcDbVertex
100
AcDb3dPolylineVertex
 10
16.8366150034
 20
-49.9040471973
 30
21.4316765616
 70
        32
  0
VERTEX
  5
2FA
100
AcDbEntity
  8
SOLIDO_FINALE
  6
CONTINUOUS
 62
        15
100
AcDbVertex
100
AcDb3dPolylineVertex
 10
16.8541973883
 20
-49.9017855974
 30
21.3848745794
 70
        32
  0
VERTEX
  5
2FC
100
AcDbEntity
  8
SOLIDO_FINALE
  6
CONTINUOUS
 62
        15
100
AcDbVertex
100
AcDb3dPolylineVertex
 10
16.8728227226
 20
-49.8994102089
 30
21.3384730096
 70
        32
  0
VERTEX
  5
2FE
100
AcDbEntity
  8
SOLIDO_FINALE
  6
CONTINUOUS
 62
        15
100
AcDbVertex
100
AcDb3dPolylineVertex
 10
16.8924836079
 20
-49.8969255449
 30
21.292504643
 70
        32
  0
VERTEX
  5
300
100
AcDbEntity
  8
SOLIDO_FINALE
  6
CONTINUOUS
 62
        15
100
AcDbVertex
100
AcDb3dPolylineVertex
 10
16.9131616453
 20
-49.8943381737
 30
21.2469975601
 70
        32
  0
VERTEX
  5
302
100
AcDbEntity
  8
SOLIDO_FINALE
  6
CONTINUOUS
 62
        15
100
AcDbVertex
100
AcDb3dPolylineVertex
 10
16.9348323003
 20
-49.8916550984
 30
21.2019869626
 70
        32
  0
VERTEX
  5
304
100
AcDbEntity
  8
SOLIDO_FINALE
  6
CONTINUOUS
 62
        15
100
AcDbVertex
100
AcDb3dPolylineVertex
 10
16.9574710385
 20
-49.8888833224
 30
21.1575080522
 70
        32
  0
VERTEX
  5
306
100
AcDbEntity
  8
SOLIDO_FINALE
  6
CONTINUOUS
 62
        15
100
AcDbVertex
100
AcDb3dPolylineVertex
 10
16.9810533254
 20
-49.8860298489
 30
21.1135960307
 70
        32
  0
VERTEX
  5
308
100
AcDbEntity
  8
SOLIDO_FINALE
  6
CONTINUOUS
 62
        15
100
AcDbVertex
100
AcDb3dPolylineVertex
 10
17.0055546266
 20
-49.883101681
 30
21.0702861
 70
        32
  0
VERTEX
  5
30A
100
AcDbEntity
  8
SOLIDO_FINALE
  6
CONTINUOUS
 62
        15
100
AcDbVertex
100
AcDb3dPolylineVertex
 10
17.0309504074
 20
-49.8801058221
 30
21.0276134618
 70
        32
  0
VERTEX
  5
30C
100
AcDbEntity
  8
SOLIDO_FINALE
  6
CONTINUOUS
 62
        15
100
AcDbVertex
100
AcDb3dPolylineVertex
 10
17.0572161335
 20
-49.8770492753
 30
20.9856133179
 70
        32
  0
VERTEX
  5
30E
100
AcDbEntity
  8
SOLIDO_FINALE
  6
CONTINUOUS
 62
        15
100
AcDbVertex
100
AcDb3dPolylineVertex
 10
17.0843272704
 20
-49.8739390439
 30
20.94432087
 70
        32
  0
VERTEX
  5
310
100
AcDbEntity
  8
SOLIDO_FINALE
  6
CONTINUOUS
 62
        15
100
AcDbVertex
100
AcDb3dPolylineVertex
 10
17.112256944
 20
-49.8707829941
 30
20.9037696804
 70
        32
  0
VERTEX
  5
312
100
AcDbEntity
  8
SOLIDO_FINALE
  6
CONTINUOUS
 62
        15
100
AcDbVertex
100
AcDb3dPolylineVertex
 10
17.1409673261
 20
-49.8675895874
 30
20.8639858984
 70
        32
  0
VERTEX
  5
314
100
AcDbEntity
  8
SOLIDO_FINALE
  6
CONTINUOUS
 62
        15
100
AcDbVertex
100
AcDb3dPolylineVertex
 10
17.1704174504
 20
-49.8643667202
 30
20.8249936062
 70
        32
  0
VERTEX
  5
316
100
AcDbEntity
  8
SOLIDO_FINALE
  6
CONTINUOUS
 62
        15
100
AcDbVertex
100
AcDb3dPolylineVertex
 10
17.200566351
 20
-49.8611222886
 30
20.7868168859
 70
        32
  0
VERTEX
  5
318
100
AcDbEntity
  8
SOLIDO_FINALE
  6
CONTINUOUS
 62
        15
100
AcDbVertex
100
AcDb3dPolylineVertex
 10
17.2313730618
 20
-49.8578641887
 30
20.7494798199
 70
        32
  0
VERTEX
  5
31A
100
AcDbEntity
  8
SOLIDO_FINALE
  6
CONTINUOUS
 62
        15
100
AcDbVertex
100
AcDb3dPolylineVertex
 10
17.2627966165
 20
-49.8546003169
 30
20.7130064903
 70
        32
  0
VERTEX
  5
31C
100
AcDbEntity
  8
SOLIDO_FINALE
  6
CONTINUOUS
 62
        15
100
AcDbVertex
100
AcDb3dPolylineVertex
 10
17.2947960493
 20
-49.8513385694
 30
20.6774209793
 70
        32
  0
VERTEX
  5
31E
100
AcDbEntity
  8
SOLIDO_FINALE
  6
CONTINUOUS
 62
        15
100
AcDbVertex
100
AcDb3dPolylineVertex
 10
17.3273303939
 20
-49.8480868423
 30
20.6427473693
 70
        32
  0
VERTEX
  5
320
100
AcDbEntity
  8
SOLIDO_FINALE
  6
CONTINUOUS
 62
        15
100
AcDbVertex
100
AcDb3dPolylineVertex
 10
17.3603586844
 20
-49.8448530318
 30
20.6090097423
 70
        32
  0
VERTEX
  5
322
100
AcDbEntity
  8
SOLIDO_FINALE
  6
CONTINUOUS
 62
        15
100
AcDbVertex
100
AcDb3dPolylineVertex
 10
17.3940959404
 20
-49.8416199262
 30
20.5759818083
 70
        32
  0
VERTEX
  5
324
100
AcDbEntity
  8
SOLIDO_FINALE
  6
CONTINUOUS
 62
        15
100
AcDbVertex
100
AcDb3dPolylineVertex
 10
17.4287692275
 20
-49.8383702197
 30
20.5434477474
 70
        32
  0
VERTEX
  5
326
100
AcDbEntity
  8
SOLIDO_FINALE
  6
CONTINUOUS
 62
        15
100
AcDbVertex
100
AcDb3dPolylineVertex
 10
17.4643544641
 20
-49.8351117828
 30
20.5114485309
 70
        32
  0
VERTEX
  5
328
100
AcDbEntity
  8
SOLIDO_FINALE
  6
CONTINUOUS
 62
        15
100
AcDbVertex
100
AcDb3dPolylineVertex
 10
17.5008275687
 20
-49.8318524857
 30
20.4800251306
 70
        32
  0
VERTEX
  5
32A
100
AcDbEntity
  8
SOLIDO_FINALE
  6
CONTINUOUS
 62
        15
100
AcDbVertex
100
AcDb3dPolylineVertex
 10
17.5381644599
 20
-49.8286001989
 30
20.4492185178
 70
        32
  0
VERTEX
  5
32C
100
AcDbEntity
  8
SOLIDO_FINALE
  6
CONTINUOUS
 62
        15
100
AcDbVertex
100
AcDb3dPolylineVertex
 10
17.5763410561
 20
-49.8253627925
 30
20.419069664
 70
        32
  0
VERTEX
  5
32E
100
AcDbEntity
  8
SOLIDO_FINALE
  6
CONTINUOUS
 62
        15
100
AcDbVertex
100
AcDb3dPolylineVertex
 10
17.6153332758
 20
-49.822148137
 30
20.3896195408
 70
        32
  0
VERTEX
  5
330
100
AcDbEntity
  8
SOLIDO_FINALE
  6
CONTINUOUS
 62
        15
100
AcDbVertex
100
AcDb3dPolylineVertex
 10
17.6551170375
 20
-49.8189641026
 30
20.3609091198
 70
        32
  0
VERTEX
  5
332
100
AcDbEntity
  8
SOLIDO_FINALE
  6
CONTINUOUS
 62
        15
100
AcDbVertex
100
AcDb3dPolylineVertex
 10
17.6956682598
 20
-49.8158185598
 30
20.3329793723
 70
        32
  0
VERTEX
  5
334
100
AcDbEntity
  8
SOLIDO_FINALE
  6
CONTINUOUS
 62
        15
100
AcDbVertex
100
AcDb3dPolylineVertex
 10
17.7369607929
 20
-49.8127199123
 30
20.3058681345
 70
        32
  0
VERTEX
  5
336
100
AcDbEntity
  8
SOLIDO_FINALE
  6
CONTINUOUS
 62
        15
100
AcDbVertex
100
AcDb3dPolylineVertex
 10
17.7789610696
 20
-49.8096759089
 30
20.2796022875
 70
        32
  0
VERTEX
  5
338
100
AcDbEntity
  8
SOLIDO_FINALE
  6
CONTINUOUS
 62
        15
100
AcDbVertex
100
AcDb3dPolylineVertex
 10
17.8216338819
 20
-49.806693437
 30
20.2542063708
 70
        32
  0
VERTEX
  5
33A
100
AcDbEntity
  8
SOLIDO_FINALE
  6
CONTINUOUS
 62
        15
100
AcDbVertex
100
AcDb3dPolylineVertex
 10
17.8649440217
 20
-49.8037793842
 30
20.2297049238
 70
        32
  0
VERTEX
  5
33C
100
AcDbEntity
  8
SOLIDO_FINALE
  6
CONTINUOUS
 62
        15
100
AcDbVertex
100
AcDb3dPolylineVertex
 10
17.9088562811
 20
-49.8009406382
 30
20.2061224859
 70
        32
  0
VERTEX
  5
33E
100
AcDbEntity
  8
SOLIDO_FINALE
  6
CONTINUOUS
 62
        15
100
AcDbVertex
100
AcDb3dPolylineVertex
 10
17.953335452
 20
-49.7981840864
 30
20.1834835965
 70
        32
  0
VERTEX
  5
340
100
AcDbEntity
  8
SOLIDO_FINALE
  6
CONTINUOUS
 62
        15
100
AcDbVertex
100
AcDb3dPolylineVertex
 10
17.9983463264
 20
-49.7955166164
 30
20.1618127951
 70
        32
  0
VERTEX
  5
342
100
AcDbEntity
  8
SOLIDO_FINALE
  6
CONTINUOUS
 62
        15
100
AcDbVertex
100
AcDb3dPolylineVertex
 10
18.0438536963
 20
-49.7929451159
 30
20.1411346211
 70
        32
  0
VERTEX
  5
344
100
AcDbEntity
  8
SOLIDO_FINALE
  6
CONTINUOUS
 62
        15
100
AcDbVertex
100
AcDb3dPolylineVertex
 10
18.0898223537
 20
-49.7904764723
 30
20.121473614
 70
        32
  0
VERTEX
  5
346
100
AcDbEntity
  8
SOLIDO_FINALE
  6
CONTINUOUS
 62
        15
100
AcDbVertex
100
AcDb3dPolylineVertex
 10
18.1362242113
 20
-49.7881171091
 30
20.102848177
 70
        32
  0
VERTEX
  5
348
100
AcDbEntity
  8
SOLIDO_FINALE
  6
CONTINUOUS
 62
        15
100
AcDbVertex
100
AcDb3dPolylineVertex
 10
18.183026472
 20
-49.7858713939
 30
20.0852657096
 70
        32
  0
VERTEX
  5
34A
100
AcDbEntity
  8
SOLIDO_FINALE
  6
CONTINUOUS
 62
        15
100
AcDbVertex
100
AcDb3dPolylineVertex
 10
18.230186863
 20
-49.7837431304
 30
20.0687342449
 70
        32
  0
VERTEX
  5
34C
100
AcDbEntity
  8
SOLIDO_FINALE
  6
CONTINUOUS
 62
        15
100
AcDbVertex
100
AcDb3dPolylineVertex
 10
18.2776631114
 20
-49.7817361223
 30
20.053261816
 70
        32
  0
VERTEX
  5
34E
100
AcDbEntity
  8
SOLIDO_FINALE
  6
CONTINUOUS
 62
        15
100
AcDbVertex
100
AcDb3dPolylineVertex
 10
18.3254129443
 20
-49.7798541731
 30
20.0388564561
 70
        32
  0
VERTEX
  5
350
100
AcDbEntity
  8
SOLIDO_FINALE
  6
CONTINUOUS
 62
        15
100
AcDbVertex
100
AcDb3dPolylineVertex
 10
18.373394089
 20
-49.7781010867
 30
20.0255261982
 70
        32
  0
VERTEX
  5
352
100
AcDbEntity
  8
SOLIDO_FINALE
  6
CONTINUOUS
 62
        15
100
AcDbVertex
100
AcDb3dPolylineVertex
 10
18.4215642724
 20
-49.7764806667
 30
20.0132790756
 70
        32
  0
VERTEX
  5
354
100
AcDbEntity
  8
SOLIDO_FINALE
  6
CONTINUOUS
 62
        15
100
AcDbVertex
100
AcDb3dPolylineVertex
 10
18.4698812219
 20
-49.7749967167
 30
20.0021231212
 70
        32
  0
VERTEX
  5
356
100
AcDbEntity
  8
SOLIDO_FINALE
  6
CONTINUOUS
 62
        15
100
AcDbVertex
100
AcDb3dPolylineVertex
 10
18.5183026645
 20
-49.7736530404
 30
19.9920663684
 70
        32
  0
VERTEX
  5
358
100
AcDbEntity
  8
SOLIDO_FINALE
  6
CONTINUOUS
 62
        15
100
AcDbVertex
100
AcDb3dPolylineVertex
 10
18.5667857643
 20
-49.7724528754
 30
19.983114055
 70
        32
  0
VERTEX
  5
35A
100
AcDbEntity
  8
SOLIDO_FINALE
  6
CONTINUOUS
 62
        15
100
AcDbVertex
100
AcDb3dPolylineVertex
 10
18.6152850417
 20
-49.7713964672
 30
19.9752583406
 70
        32
  0
VERTEX
  5
35C
100
AcDbEntity
  8
SOLIDO_FINALE
  6
CONTINUOUS
 62
        15
100
AcDbVertex
100
AcDb3dPolylineVertex
 10
18.6637542584
 20
-49.7704831322
 30
19.9684876404
 70
        32
  0
VERTEX
  5
35E
100
AcDbEntity
  8
SOLIDO_FINALE
  6
CONTINUOUS
 62
        15
100
AcDbVertex
100
AcDb3dPolylineVertex
 10
18.7121471763
 20
-49.7697121865
 30
19.9627903699
 70
        32
  0
VERTEX
  5
360
100
AcDbEntity
  8
SOLIDO_FINALE
  6
CONTINUOUS
 62
        15
100
AcDbVertex
100
AcDb3dPolylineVertex
 10
18.760417557
 20
-49.7690829461
 30
19.9581549444
 70
        32
  0
VERTEX
  5
362
100
AcDbEntity
  8
SOLIDO_FINALE
  6
CONTINUOUS
 62
        15
100
AcDbVertex
100
AcDb3dPolylineVertex
 10
18.8085191621
 20
-49.7685947274
 30
19.9545697793
 70
        32
  0
VERTEX
  5
364
100
AcDbEntity
  8
SOLIDO_FINALE
  6
CONTINUOUS
 62
        15
100
AcDbVertex
100
AcDb3dPolylineVertex
 10
18.8564057536
 20
-49.7682468464
 30
19.9520232899
 70
        32
  0
VERTEX
  5
366
100
AcDbEntity
  8
SOLIDO_FINALE
  6
CONTINUOUS
 62
        15
100
AcDbVertex
100
AcDb3dPolylineVertex
 10
18.904031093
 20
-49.7680386193
 30
19.9505038917
 70
        32
  0
VERTEX
  5
368
100
AcDbEntity
  8
SOLIDO_FINALE
  6
CONTINUOUS
 62
        15
100
AcDbVertex
100
AcDb3dPolylineVertex
 10
18.9513489421
 20
-49.7679693622
 30
19.95
 70
        32
  0
VERTEX
  5
36A
100
AcDbEntity
  8
SOLIDO_FINALE
  6
CONTINUOUS
 62
        15
100
AcDbVertex
100
AcDb3dPolylineVertex
 10
18.9986667912
 20
-49.7680386193
 30
19.9505038917
 70
        32
  0
VERTEX
  5
36C
100
AcDbEntity
  8
SOLIDO_FINALE
  6
CONTINUOUS
 62
        15
100
AcDbVertex
100
AcDb3dPolylineVertex
 10
19.0462921306
 20
-49.7682468464
 30
19.9520232899
 70
        32
  0
VERTEX
  5
36E
100
AcDbEntity
  8
SOLIDO_FINALE
  6
CONTINUOUS
 62
        15
100
AcDbVertex
100
AcDb3dPolylineVertex
 10
19.094178722
 20
-49.7685947274
 30
19.9545697793
 70
        32
  0
VERTEX
  5
370
100
AcDbEntity
  8
SOLIDO_FINALE
  6
CONTINUOUS
 62
        15
100
AcDbVertex
100
AcDb3dPolylineVertex
 10
19.1422803272
 20
-49.7690829461
 30
19.9581549444
 70
        32
  0
VERTEX
  5
372
100
AcDbEntity
  8
SOLIDO_FINALE
  6
CONTINUOUS
 62
        15
100
AcDbVertex
100
AcDb3dPolylineVertex
 10
19.1905507078
 20
-49.7697121865
 30
19.9627903699
 70
        32
  0
VERTEX
  5
374
100
AcDbEntity
  8
SOLIDO_FINALE
  6
CONTINUOUS
 62
        15
100
AcDbVertex
100
AcDb3dPolylineVertex
 10
19.2389436257
 20
-49.7704831322
 30
19.9684876404
 70
        32
  0
VERTEX
  5
376
100
AcDbEntity
  8
SOLIDO_FINALE
  6
CONTINUOUS
 62
        15
100
AcDbVertex
100
AcDb3dPolylineVertex
 10
19.2874128425
 20
-49.7713964672
 30
19.9752583406
 70
        32
  0
VERTEX
  5
378
100
AcDbEntity
  8
SOLIDO_FINALE
  6
CONTINUOUS
 62
        15
100
AcDbVertex
100
AcDb3dPolylineVertex
 10
19.3359121199
 20
-49.7724528754
 30
19.983114055
 70
        32
  0
VERTEX
  5
37A
100
AcDbEntity
  8
SOLIDO_FINALE
  6
CONTINUOUS
 62
        15
100
AcDbVertex
100
AcDb3dPolylineVertex
 10
19.3843952196
 20
-49.7736530404
 30
19.9920663684
 70
        32
  0
VERTEX
  5
37C
100
AcDbEntity
  8
SOLIDO_FINALE
  6
CONTINUOUS
 62
        15
100
AcDbVertex
100
AcDb3dPolylineVertex
 10
19.4328166622
 20
-49.7749967167
 30
20.0021231212
 70
        32
  0
VERTEX
  5
37E
100
AcDbEntity
  8
SOLIDO_FINALE
  6
CONTINUOUS
 62
        15
100
AcDbVertex
100
AcDb3dPolylineVertex
 10
19.4811336117
 20
-49.7764806667
 30
20.0132790756
 70
        32
  0
VERTEX
  5
380
100
AcDbEntity
  8
SOLIDO_FINALE
  6
CONTINUOUS
 62
        15
100
AcDbVertex
100
AcDb3dPolylineVertex
 10
19.5293037952
 20
-49.7781010867
 30
20.0255261982
 70
        32
  0
VERTEX
  5
382
100
AcDbEntity
  8
SOLIDO_FINALE
  6
CONTINUOUS
 62
        15
100
AcDbVertex
100
AcDb3dPolylineVertex
 10
19.5772849398
 20
-49.7798541731
 30
20.0388564561
 70
        32
  0
VERTEX
  5
384
100
AcDbEntity
  8
SOLIDO_FINALE
  6
CONTINUOUS
 62
        15
100
AcDbVertex
100
AcDb3dPolylineVertex
 10
19.6250347727
 20
-49.7817361223
 30
20.053261816
 70
        32
  0
VERTEX
  5
386
100
AcDbEntity
  8
SOLIDO_FINALE
  6
CONTINUOUS
 62
        15
100
AcDbVertex
100
AcDb3dPolylineVertex
 10
19.6725110211
 20
-49.7837431304
 30
20.0687342449
 70
        32
  0
VERTEX
  5
388
100
AcDbEntity
  8
SOLIDO_FINALE
  6
CONTINUOUS
 62
        15
100
AcDbVertex
100
AcDb3dPolylineVertex
 10
19.7196714121
 20
-49.7858713939
 30
20.0852657096
 70
        32
  0
VERTEX
  5
38A
100
AcDbEntity
  8
SOLIDO_FINALE
  6
CONTINUOUS
 62
        15
100
AcDbVertex
100
AcDb3dPolylineVertex
 10
19.7664736728
 20
-49.7881171091
 30
20.102848177
 70
        32
  0
VERTEX
  5
38C
100
AcDbEntity
  8
SOLIDO_FINALE
  6
CONTINUOUS
 62
        15
100
AcDbVertex
100
AcDb3dPolylineVertex
 10
19.8128755304
 20
-49.7904764723
 30
20.121473614
 70
        32
  0
VERTEX
  5
38E
100
AcDbEntity
  8
SOLIDO_FINALE
  6
CONTINUOUS
 62
        15
100
AcDbVertex
100
AcDb3dPolylineVertex
 10
19.8588441878
 20
-49.7929451159
 30
20.1411346211
 70
        32
  0
VERTEX
  5
390
100
AcDbEntity
  8
SOLIDO_FINALE
  6
CONTINUOUS
 62
        15
100
AcDbVertex
100
AcDb3dPolylineVertex
 10
19.9043515577
 20
-49.7955166164
 30
20.1618127951
 70
        32
  0
VERTEX
  5
392
100
AcDbEntity
  8
SOLIDO_FINALE
  6
CONTINUOUS
 62
        15
100
AcDbVertex
100
AcDb3dPolylineVertex
 10
19.9493624321
 20
-49.7981840864
 30
20.1834835965
 70
        32
  0
VERTEX
  5
394
100
AcDbEntity
  8
SOLIDO_FINALE
  6
CONTINUOUS
 62
        15
100
AcDbVertex
100
AcDb3dPolylineVertex
 10
19.993841603
 20
-49.8009406382
 30
20.2061224859
 70
        32
  0
VERTEX
  5
396
100
AcDbEntity
  8
SOLIDO_FINALE
  6
CONTINUOUS
 62
        15
100
AcDbVertex
100
AcDb3dPolylineVertex
 10
20.0377538624
 20
-49.8037793842
 30
20.2297049238
 70
        32
  0
VERTEX
  5
398
100
AcDbEntity
  8
SOLIDO_FINALE
  6
CONTINUOUS
 62
        15
100
AcDbVertex
100
AcDb3dPolylineVertex
 10
20.0810640022
 20
-49.806693437
 30
20.2542063708
 70
        32
  0
VERTEX
  5
39A
100
AcDbEntity
  8
SOLIDO_FINALE
  6
CONTINUOUS
 62
        15
100
AcDbVertex
100
AcDb3dPolylineVertex
 10
20.1237368145
 20
-49.8096759089
 30
20.2796022875
 70
        32
  0
VERTEX
  5
39C
100
AcDbEntity
  8
SOLIDO_FINALE
  6
CONTINUOUS
 62
        15
100
AcDbVertex
100
AcDb3dPolylineVertex
 10
20.1657370912
 20
-49.8127199123
 30
20.3058681345
 70
        32
  0
VERTEX
  5
39E
100
AcDbEntity
  8
SOLIDO_FINALE
  6
CONTINUOUS
 62
        15
100
AcDbVertex
100
AcDb3dPolylineVertex
 10
20.2070296244
 20
-49.8158185598
 30
20.3329793723
 70
        32
  0
VERTEX
  5
3A0
100
AcDbEntity
  8
SOLIDO_FINALE
  6
CONTINUOUS
 62
        15
100
AcDbVertex
100
AcDb3dPolylineVertex
 10
20.2475808466
 20
-49.8189641026
 30
20.3609091198
 70
        32
  0
VERTEX
  5
3A2
100
AcDbEntity
  8
SOLIDO_FINALE
  6
CONTINUOUS
 62
        15
100
AcDbVertex
100
AcDb3dPolylineVertex
 10
20.2873646083
 20
-49.822148137
 30
20.3896195408
 70
        32
  0
VERTEX
  5
3A4
100
AcDbEntity
  8
SOLIDO_FINALE
  6
CONTINUOUS
 62
        15
100
AcDbVertex
100
AcDb3dPolylineVertex
 10
20.326356828
 20
-49.8253627925
 30
20.419069664
 70
        32
  0
VERTEX
  5
3A6
100
AcDbEntity
  8
SOLIDO_FINALE
  6
CONTINUOUS
 62
        15
100
AcDbVertex
100
AcDb3dPolylineVertex
 10
20.3645334242
 20
-49.8286001989
 30
20.4492185178
 70
        32
  0
VERTEX
  5
3A8
100
AcDbEntity
  8
SOLIDO_FINALE
  6
CONTINUOUS
 62
        15
100
AcDbVertex
100
AcDb3dPolylineVertex
 10
20.4018703154
 20
-49.8318524857
 30
20.4800251306
 70
        32
  0
VERTEX
  5
3AA
100
AcDbEntity
  8
SOLIDO_FINALE
  6
CONTINUOUS
 62
        15
100
AcDbVertex
100
AcDb3dPolylineVertex
 10
20.43834342
 20
-49.8351117828
 30
20.5114485309
 70
        32
  0
VERTEX
  5
3AC
100
AcDbEntity
  8
SOLIDO_FINALE
  6
CONTINUOUS
 62
        15
100
AcDbVertex
100
AcDb3dPolylineVertex
 10
20.4739286566
 20
-49.8383702197
 30
20.5434477474
 70
        32
  0
VERTEX
  5
3AE
100
AcDbEntity
  8
SOLIDO_FINALE
  6
CONTINUOUS
 62
        15
100
AcDbVertex
100
AcDb3dPolylineVertex
 10
20.5086019437
 20
-49.8416199262
 30
20.5759818083
 70
        32
  0
VERTEX
  5
3B0
100
AcDbEntity
  8
SOLIDO_FINALE
  6
CONTINUOUS
 62
        15
100
AcDbVertex
100
AcDb3dPolylineVertex
 10
20.5423391997
 20
-49.8448530318
 30
20.6090097423
 70
        32
  0
VERTEX
  5
3B2
100
AcDbEntity
  8
SOLIDO_FINALE
  6
CONTINUOUS
 62
        15
100
AcDbVertex
100
AcDb3dPolylineVertex
 10
20.5753674902
 20
-49.8480868423
 30
20.6427473693
 70
        32
  0
VERTEX
  5
3B4
100
AcDbEntity
  8
SOLIDO_FINALE
  6
CONTINUOUS
 62
        15
100
AcDbVertex
100
AcDb3dPolylineVertex
 10
20.6079018348
 20
-49.8513385694
 30
20.6774209793
 70
        32
  0
VERTEX
  5
3B6
100
AcDbEntity
  8
SOLIDO_FINALE
  6
CONTINUOUS
 62
        15
100
AcDbVertex
100
AcDb3dPolylineVertex
 10
20.6399012676
 20
-49.8546003169
 30
20.7130064903
 70
        32
  0
VERTEX
  5
3B8
100
AcDbEntity
  8
SOLIDO_FINALE
  6
CONTINUOUS
 62
        15
100
AcDbVertex
100
AcDb3dPolylineVertex
 10
20.6713248224
 20
-49.8578641887
 30
20.7494798199
 70
        32
  0
VERTEX
  5
3BA
100
AcDbEntity
  8
SOLIDO_FINALE
  6
CONTINUOUS
 62
        15
100
AcDbVertex
100
AcDb3dPolylineVertex
 10
20.7021315331
 20
-49.8611222886
 30
20.7868168859
 70
        32
  0
VERTEX
  5
3BC
100
AcDbEntity
  8
SOLIDO_FINALE
  6
CONTINUOUS
 62
        15
100
AcDbVertex
100
AcDb3dPolylineVertex
 10
20.7322804337
 20
-49.8643667202
 30
20.8249936062
 70
        32
  0
VERTEX
  5
3BE
100
AcDbEntity
  8
SOLIDO_FINALE
  6
CONTINUOUS
 62
        15
100
AcDbVertex
100
AcDb3dPolylineVertex
 10
20.761730558
 20
-49.8675895874
 30
20.8639858984
 70
        32
  0
VERTEX
  5
3C0
100
AcDbEntity
  8
SOLIDO_FINALE
  6
CONTINUOUS
 62
        15
100
AcDbVertex
100
AcDb3dPolylineVertex
 10
20.7904409401
 20
-49.8707829941
 30
20.9037696804
 70
        32
  0
VERTEX
  5
3C2
100
AcDbEntity
  8
SOLIDO_FINALE
  6
CONTINUOUS
 62
        15
100
AcDbVertex
100
AcDb3dPolylineVertex
 10
20.8183706137
 20
-49.8739390439
 30
20.94432087
 70
        32
  0
VERTEX
  5
3C4
100
AcDbEntity
  8
SOLIDO_FINALE
  6
CONTINUOUS
 62
        15
100
AcDbVertex
100
AcDb3dPolylineVertex
 10
20.8454817506
 20
-49.8770492753
 30
20.9856133179
 70
        32
  0
VERTEX
  5
3C6
100
AcDbEntity
  8
SOLIDO_FINALE
  6
CONTINUOUS
 62
        15
100
AcDbVertex
100
AcDb3dPolylineVertex
 10
20.8717474767
 20
-49.8801058221
 30
21.0276134618
 70
        32
  0
VERTEX
  5
3C8
100
AcDbEntity
  8
SOLIDO_FINALE
  6
CONTINUOUS
 62
        15
100
AcDbVertex
100
AcDb3dPolylineVertex
 10
20.8971432575
 20
-49.883101681
 30
21.0702861
 70
        32
  0
VERTEX
  5
3CA
100
AcDbEntity
  8
SOLIDO_FINALE
  6
CONTINUOUS
 62
        15
100
AcDbVertex
100
AcDb3dPolylineVertex
 10
20.9216445587
 20
-49.8860298489
 30
21.1135960307
 70
        32
  0
VERTEX
  5
3CC
100
AcDbEntity
  8
SOLIDO_FINALE
  6
CONTINUOUS
 62
        15
100
AcDbVertex
100
AcDb3dPolylineVertex
 10
20.9452268456
 20
-49.8888833224
 30
21.1575080522
 70
        32
  0
VERTEX
  5
3CE
100
AcDbEntity
  8
SOLIDO_FINALE
  6
CONTINUOUS
 62
        15
100
AcDbVertex
100
AcDb3dPolylineVertex
 10
20.9678655838
 20
-49.8916550984
 30
21.2019869626
 70
        32
  0
VERTEX
  5
3D0
100
AcDbEntity
  8
SOLIDO_FINALE
  6
CONTINUOUS
 62
        15
100
AcDbVertex
100
AcDb3dPolylineVertex
 10
20.9895362389
 20
-49.8943381737
 30
21.2469975601
 70
        32
  0
VERTEX
  5
3D2
100
AcDbEntity
  8
SOLIDO_FINALE
  6
CONTINUOUS
 62
        15
100
AcDbVertex
100
AcDb3dPolylineVertex
 10
21.0102142762
 20
-49.8969255449
 30
21.292504643
 70
        32
  0
VERTEX
  5
3D4
100
AcDbEntity
  8
SOLIDO_FINALE
  6
CONTINUOUS
 62
        15
100
AcDbVertex
100
AcDb3dPolylineVertex
 10
21.0298751615
 20
-49.8994102089
 30
21.3384730096
 70
        32
  0
VERTEX
  5
3D6
100
AcDbEntity
  8
SOLIDO_FINALE
  6
CONTINUOUS
 62
        15
100
AcDbVertex
100
AcDb3dPolylineVertex
 10
21.0485004958
 20
-49.9017855974
 30
21.3848745794
 70
        32
  0
VERTEX
  5
3D8
100
AcDbEntity
  8
SOLIDO_FINALE
  6
CONTINUOUS
 62
        15
100
AcDbVertex
100
AcDb3dPolylineVertex
 10
21.0660828807
 20
-49.9040471973
 30
21.4316765616
 70
        32
  0
VERTEX
  5
3DA
100
AcDbEntity
  8
SOLIDO_FINALE
  6
CONTINUOUS
 62
        15
100
AcDbVertex
100
AcDb3dPolylineVertex
 10
21.0826142824
 20
-49.9061910881
 30
21.4788366888
 70
        32
  0
VERTEX
  5
3DC
100
AcDbEntity
  8
SOLIDO_FINALE
  6
CONTINUOUS
 62
        15
100
AcDbVertex
100
AcDb3dPolylineVertex
 10
21.0980866668
 20
-49.9082133491
 30
21.5263126937
 70
        32
  0
VERTEX
  5
3DE
100
AcDbEntity
  8
SOLIDO_FINALE
  6
CONTINUOUS
 62
        15
100
AcDbVertex
100
AcDb3dPolylineVertex
 10
21.1124920001
 20
-49.9101100599
 30
21.5740623088
 70
        32
  0
VERTEX
  5
3E0
100
AcDbEntity
  8
SOLIDO_FINALE
  6
CONTINUOUS
 62
        15
100
AcDbVertex
100
AcDb3dPolylineVertex
 10
21.1258222482
 20
-49.9118772998
 30
21.6220432667
 70
        32
  0
VERTEX
  5
3E2
100
AcDbEntity
  8
SOLIDO_FINALE
  6
CONTINUOUS
 62
        15
100
AcDbVertex
100
AcDb3dPolylineVertex
 10
21.1380693772
 20
-49.9135111484
 30
21.6702133
 70
        32
  0
VERTEX
  5
3E4
100
AcDbEntity
  8
SOLIDO_FINALE
  6
CONTINUOUS
 62
        15
100
AcDbVertex
100
AcDb3dPolylineVertex
 10
21.1492253533
 20
-49.9150076849
 30
21.7185301414
 70
        32
  0
VERTEX
  5
3E6
100
AcDbEntity
  8
SOLIDO_FINALE
  6
CONTINUOUS
 62
        15
100
AcDbVertex
100
AcDb3dPolylineVertex
 10
21.1592821423
 20
-49.916362989
 30
21.7669515233
 70
        32
  0
VERTEX
  5
3E8
100
AcDbEntity
  8
SOLIDO_FINALE
  6
CONTINUOUS
 62
        15
100
AcDbVertex
100
AcDb3dPolylineVertex
 10
21.1682345047
 20
-49.9175737034
 30
21.8154346156
 70
        32
  0
VERTEX
  5
3EA
100
AcDbEntity
  8
SOLIDO_FINALE
  6
CONTINUOUS
 62
        15
100
AcDbVertex
100
AcDb3dPolylineVertex
 10
21.1760902769
 20
-49.9186395223
 30
21.8639339422
 70
        32
  0
VERTEX
  5
3EC
100
AcDbEntity
  8
SOLIDO_FINALE
  6
CONTINUOUS
 62
        15
100
AcDbVertex
100
AcDb3dPolylineVertex
 10
21.1828610398
 20
-49.9195611023
 30
21.9124032677
 70
        32
  0
VERTEX
  5
3EE
100
AcDbEntity
  8
SOLIDO_FINALE
  6
CONTINUOUS
 62
        15
100
AcDbVertex
100
AcDb3dPolylineVertex
 10
21.1885583741
 20
-49.9203390996
 30
21.9607963564
 70
        32
  0
VERTEX
  5
3F0
100
AcDbEntity
  8
SOLIDO_FINALE
  6
CONTINUOUS
 62
        15
100
AcDbVertex
100
AcDb3dPolylineVertex
 10
21.1931938605
 20
-49.9209741709
 30
22.0090669726
 70
        32
  0
VERTEX
  5
3F2
100
AcDbEntity
  8
SOLIDO_FINALE
  6
CONTINUOUS
 62
        15
100
AcDbVertex
100
AcDb3dPolylineVertex
 10
21.1967790798
 20
-49.9214669725
 30
22.0571688807
 70
        32
  0
VERTEX
  5
3F4
100
AcDbEntity
  8
SOLIDO_FINALE
  6
CONTINUOUS
 62
        15
100
AcDbVertex
100
AcDb3dPolylineVertex
 10
21.1993256127
 20
-49.9218181609
 30
22.105055845
 70
        32
  0
VERTEX
  5
3F6
100
AcDbEntity
  8
SOLIDO_FINALE
  6
CONTINUOUS
 62
        15
100
AcDbVertex
100
AcDb3dPolylineVertex
 10
21.2008450398
 20
-49.9220283926
 30
22.15268163
 70
        32
  0
VERTEX
  5
3F8
100
AcDbEntity
  8
SOLIDO_FINALE
  6
CONTINUOUS
 62
        15
100
AcDbVertex
100
AcDb3dPolylineVertex
 10
21.2013489421
 20
-49.9220983239
 30
22.2
 70
        32
  0
VERTEX
  5
3FA
100
AcDbEntity
  8
SOLIDO_FINALE
  6
CONTINUOUS
 62
        15
100
AcDbVertex
100
AcDb3dPolylineVertex
 10
21.2008450398
 20
-49.9220283926
 30
22.24731837
 70
        32
  0
VERTEX
  5
3FC
100
AcDbEntity
  8
SOLIDO_FINALE
  6
CONTINUOUS
 62
        15
100
AcDbVertex
100
AcDb3dPolylineVertex
 10
21.1993256127
 20
-49.9218181609
 30
22.294944155
 70
        32
  0
VERTEX
  5
3FE
100
AcDbEntity
  8
SOLIDO_FINALE
  6
CONTINUOUS
 62
        15
100
AcDbVertex
100
AcDb3dPolylineVertex
 10
21.1967790798
 20
-49.9214669725
 30
22.3428311193
 70
        32
  0
VERTEX
  5
400
100
AcDbEntity
  8
SOLIDO_FINALE
  6
CONTINUOUS
 62
        15
100
AcDbVertex
100
AcDb3dPolylineVertex
 10
21.1931938605
 20
-49.9209741709
 30
22.3909330274
 70
        32
  0
VERTEX
  5
402
100
AcDbEntity
  8
SOLIDO_FINALE
  6
CONTINUOUS
 62
        15
100
AcDbVertex
100
AcDb3dPolylineVertex
 10
21.1885583741
 20
-49.9203390996
 30
22.4392036436
 70
        32
  0
VERTEX
  5
404
100
AcDbEntity
  8
SOLIDO_FINALE
  6
CONTINUOUS
 62
        15
100
AcDbVertex
100
AcDb3dPolylineVertex
 10
21.1828610398
 20
-49.9195611023
 30
22.4875967323
 70
        32
  0
VERTEX
  5
406
100
AcDbEntity
  8
SOLIDO_FINALE
  6
CONTINUOUS
 62
        15
100
AcDbVertex
100
AcDb3dPolylineVertex
 10
21.1760902769
 20
-49.9186395223
 30
22.5360660578
 70
        32
  0
VERTEX
  5
408
100
AcDbEntity
  8
SOLIDO_FINALE
  6
CONTINUOUS
 62
        15
100
AcDbVertex
100
AcDb3dPolylineVertex
 10
21.1682345047
 20
-49.9175737034
 30
22.5845653844
 70
        32
  0
VERTEX
  5
40A
100
AcDbEntity
  8
SOLIDO_FINALE
  6
CONTINUOUS
 62
        15
100
AcDbVertex
100
AcDb3dPolylineVertex
 10
21.1592821423
 20
-49.916362989
 30
22.6330484767
 70
        32
  0
VERTEX
  5
40C
100
AcDbEntity
  8
SOLIDO_FINALE
  6
CONTINUOUS
 62
        15
100
AcDbVertex
100
AcDb3dPolylineVertex
 10
21.1492253533
 20
-49.9150076849
 30
22.6814698586
 70
        32
  0
VERTEX
  5
40E
100
AcDbEntity
  8
SOLIDO_FINALE
  6
CONTINUOUS
 62
        15
100
AcDbVertex
100
AcDb3dPolylineVertex
 10
21.1380693772
 20
-49.9135111484
 30
22.7297867
 70
        32
  0
VERTEX
  5
410
100
AcDbEntity
  8
SOLIDO_FINALE
  6
CONTINUOUS
 62
        15
100
AcDbVertex
100
AcDb3dPolylineVertex
 10
21.1258222482
 20
-49.9118772998
 30
22.7779567333
 70
        32
  0
VERTEX
  5
412
100
AcDbEntity
  8
SOLIDO_FINALE
  6
CONTINUOUS
 62
        15
100
AcDbVertex
100
AcDb3dPolylineVertex
 10
21.1124920001
 20
-49.9101100599
 30
22.8259376912
 70
        32
  0
VERTEX
  5
414
100
AcDbEntity
  8
SOLIDO_FINALE
  6
CONTINUOUS
 62
        15
100
AcDbVertex
100
AcDb3dPolylineVertex
 10
21.0980866668
 20
-49.9082133491
 30
22.8736873063
 70
        32
  0
VERTEX
  5
416
100
AcDbEntity
  8
SOLIDO_FINALE
  6
CONTINUOUS
 62
        15
100
AcDbVertex
100
AcDb3dPolylineVertex
 10
21.0826142824
 20
-49.9061910881
 30
22.9211633112
 70
        32
  0
VERTEX
  5
418
100
AcDbEntity
  8
SOLIDO_FINALE
  6
CONTINUOUS
 62
        15
100
AcDbVertex
100
AcDb3dPolylineVertex
 10
21.0660828807
 20
-49.9040471973
 30
22.9683234384
 70
        32
  0
VERTEX
  5
41A
100
AcDbEntity
  8
SOLIDO_FINALE
  6
CONTINUOUS
 62
        15
100
AcDbVertex
100
AcDb3dPolylineVertex
 10
21.0485004958
 20
-49.9017855974
 30
23.0151254206
 70
        32
  0
VERTEX
  5
41C
100
AcDbEntity
  8
SOLIDO_FINALE
  6
CONTINUOUS
 62
        15
100
AcDbVertex
100
AcDb3dPolylineVertex
 10
21.0298751615
 20
-49.8994102089
 30
23.0615269904
 70
        32
  0
VERTEX
  5
41E
100
AcDbEntity
  8
SOLIDO_FINALE
  6
CONTINUOUS
 62
        15
100
AcDbVertex
100
AcDb3dPolylineVertex
 10
21.0102142762
 20
-49.8969255449
 30
23.107495357
 70
        32
  0
VERTEX
  5
420
100
AcDbEntity
  8
SOLIDO_FINALE
  6
CONTINUOUS
 62
        15
100
AcDbVertex
100
AcDb3dPolylineVertex
 10
20.9895362389
 20
-49.8943381737
 30
23.1530024399
 70
        32
  0
VERTEX
  5
422
100
AcDbEntity
  8
SOLIDO_FINALE
  6
CONTINUOUS
 62
        15
100
AcDbVertex
100
AcDb3dPolylineVertex
 10
20.9678655838
 20
-49.8916550984
 30
23.1980130374
 70
        32
  0
VERTEX
  5
424
100
AcDbEntity
  8
SOLIDO_FINALE
  6
CONTINUOUS
 62
        15
100
AcDbVertex
100
AcDb3dPolylineVertex
 10
20.9452268456
 20
-49.8888833224
 30
23.2424919478
 70
        32
  0
VERTEX
  5
426
100
AcDbEntity
  8
SOLIDO_FINALE
  6
CONTINUOUS
 62
        15
100
AcDbVertex
100
AcDb3dPolylineVertex
 10
20.9216445587
 20
-49.8860298489
 30
23.2864039693
 70
        32
  0
VERTEX
  5
428
100
AcDbEntity
  8
SOLIDO_FINALE
  6
CONTINUOUS
 62
        15
100
AcDbVertex
100
AcDb3dPolylineVertex
 10
20.8971432575
 20
-49.883101681
 30
23.3297139
 70
        32
  0
VERTEX
  5
42A
100
AcDbEntity
  8
SOLIDO_FINALE
  6
CONTINUOUS
 62
        15
100
AcDbVertex
100
AcDb3dPolylineVertex
 10
20.8717474767
 20
-49.8801058221
 30
23.3723865382
 70
        32
  0
VERTEX
  5
42C
100
AcDbEntity
  8
SOLIDO_FINALE
  6
CONTINUOUS
 62
        15
100
AcDbVertex
100
AcDb3dPolylineVertex
 10
20.8454817506
 20
-49.8770492753
 30
23.4143866821
 70
        32
  0
VERTEX
  5
42E
100
AcDbEntity
  8
SOLIDO_FINALE
  6
CONTINUOUS
 62
        15
100
AcDbVertex
100
AcDb3dPolylineVertex
 10
20.8183706137
 20
-49.8739390439
 30
23.45567913
 70
        32
  0
VERTEX
  5
430
100
AcDbEntity
  8
SOLIDO_FINALE
  6
CONTINUOUS
 62
        15
100
AcDbVertex
100
AcDb3dPolylineVertex
 10
20.7904409401
 20
-49.8707829941
 30
23.4962303196
 70
        32
  0
VERTEX
  5
432
100
AcDbEntity
  8
SOLIDO_FINALE
  6
CONTINUOUS
 62
        15
100
AcDbVertex
100
AcDb3dPolylineVertex
 10
20.761730558
 20
-49.8675895874
 30
23.5360141016
 70
        32
  0
VERTEX
  5
434
100
AcDbEntity
  8
SOLIDO_FINALE
  6
CONTINUOUS
 62
        15
100
AcDbVertex
100
AcDb3dPolylineVertex
 10
20.7322804337
 20
-49.8643667202
 30
23.5750063938
 70
        32
  0
VERTEX
  5
436
100
AcDbEntity
  8
SOLIDO_FINALE
  6
CONTINUOUS
 62
        15
100
AcDbVertex
100
AcDb3dPolylineVertex
 10
20.7021315331
 20
-49.8611222886
 30
23.6131831141
 70
        32
  0
VERTEX
  5
438
100
AcDbEntity
  8
SOLIDO_FINALE
  6
CONTINUOUS
 62
        15
100
AcDbVertex
100
AcDb3dPolylineVertex
 10
20.6713248224
 20
-49.8578641887
 30
23.6505201801
 70
        32
  0
VERTEX
  5
43A
100
AcDbEntity
  8
SOLIDO_FINALE
  6
CONTINUOUS
 62
        15
100
AcDbVertex
100
AcDb3dPolylineVertex
 10
20.6399012676
 20
-49.8546003169
 30
23.6869935097
 70
        32
  0
VERTEX
  5
43C
100
AcDbEntity
  8
SOLIDO_FINALE
  6
CONTINUOUS
 62
        15
100
AcDbVertex
100
AcDb3dPolylineVertex
 10
20.6079018348
 20
-49.8513385694
 30
23.7225790207
 70
        32
  0
VERTEX
  5
43E
100
AcDbEntity
  8
SOLIDO_FINALE
  6
CONTINUOUS
 62
        15
100
AcDbVertex
100
AcDb3dPolylineVertex
 10
20.5753674902
 20
-49.8480868423
 30
23.7572526307
 70
        32
  0
VERTEX
  5
440
100
AcDbEntity
  8
SOLIDO_FINALE
  6
CONTINUOUS
 62
        15
100
AcDbVertex
100
AcDb3dPolylineVertex
 10
20.5423391997
 20
-49.8448530318
 30
23.7909902577
 70
        32
  0
VERTEX
  5
442
100
AcDbEntity
  8
SOLIDO_FINALE
  6
CONTINUOUS
 62
        15
100
AcDbVertex
100
AcDb3dPolylineVertex
 10
20.5086019437
 20
-49.8416199262
 30
23.8240181917
 70
        32
  0
VERTEX
  5
444
100
AcDbEntity
  8
SOLIDO_FINALE
  6
CONTINUOUS
 62
        15
100
AcDbVertex
100
AcDb3dPolylineVertex
 10
20.4739286566
 20
-49.8383702197
 30
23.8565522526
 70
        32
  0
VERTEX
  5
446
100
AcDbEntity
  8
SOLIDO_FINALE
  6
CONTINUOUS
 62
        15
100
AcDbVertex
100
AcDb3dPolylineVertex
 10
20.43834342
 20
-49.8351117828
 30
23.8885514691
 70
        32
  0
VERTEX
  5
448
100
AcDbEntity
  8
SOLIDO_FINALE
  6
CONTINUOUS
 62
        15
100
AcDbVertex
100
AcDb3dPolylineVertex
 10
20.4018703154
 20
-49.8318524857
 30
23.9199748694
 70
        32
  0
VERTEX
  5
44A
100
AcDbEntity
  8
SOLIDO_FINALE
  6
CONTINUOUS
 62
        15
100
AcDbVertex
100
AcDb3dPolylineVertex
 10
20.3645334242
 20
-49.8286001989
 30
23.9507814822
 70
        32
  0
VERTEX
  5
44C
100
AcDbEntity
  8
SOLIDO_FINALE
  6
CONTINUOUS
 62
        15
100
AcDbVertex
100
AcDb3dPolylineVertex
 10
20.326356828
 20
-49.8253627925
 30
23.980930336
 70
        32
  0
VERTEX
  5
44E
100
AcDbEntity
  8
SOLIDO_FINALE
  6
CONTINUOUS
 62
        15
100
AcDbVertex
100
AcDb3dPolylineVertex
 10
20.2873646083
 20
-49.822148137
 30
24.0103804591
 70
        32
  0
VERTEX
  5
450
100
AcDbEntity
  8
SOLIDO_FINALE
  6
CONTINUOUS
 62
        15
100
AcDbVertex
100
AcDb3dPolylineVertex
 10
20.2475808466
 20
-49.8189641026
 30
24.0390908802
 70
        32
  0
VERTEX
  5
452
100
AcDbEntity
  8
SOLIDO_FINALE
  6
CONTINUOUS
 62
        15
100
AcDbVertex
100
AcDb3dPolylineVertex
 10
20.2070296244
 20
-49.8158185598
 30
24.0670206277
 70
        32
  0
VERTEX
  5
454
100
AcDbEntity
  8
SOLIDO_FINALE
  6
CONTINUOUS
 62
        15
100
AcDbVertex
100
AcDb3dPolylineVertex
 10
20.1657370912
 20
-49.8127199123
 30
24.0941318655
 70
        32
  0
VERTEX
  5
456
100
AcDbEntity
  8
SOLIDO_FINALE
  6
CONTINUOUS
 62
        15
100
AcDbVertex
100
AcDb3dPolylineVertex
 10
20.1237368145
 20
-49.8096759089
 30
24.1203977125
 70
        32
  0
VERTEX
  5
458
100
AcDbEntity
  8
SOLIDO_FINALE
  6
CONTINUOUS
 62
        15
100
AcDbVertex
100
AcDb3dPolylineVertex
 10
20.0810640022
 20
-49.806693437
 30
24.1457936292
 70
        32
  0
VERTEX
  5
45A
100
AcDbEntity
  8
SOLIDO_FINALE
  6
CONTINUOUS
 62
        15
100
AcDbVertex
100
AcDb3dPolylineVertex
 10
20.0377538624
 20
-49.8037793842
 30
24.1702950762
 70
        32
  0
VERTEX
  5
45C
100
AcDbEntity
  8
SOLIDO_FINALE
  6
CONTINUOUS
 62
        15
100
AcDbVertex
100
AcDb3dPolylineVertex
 10
19.993841603
 20
-49.8009406382
 30
24.1938775141
 70
        32
  0
VERTEX
  5
45E
100
AcDbEntity
  8
SOLIDO_FINALE
  6
CONTINUOUS
 62
        15
100
AcDbVertex
100
AcDb3dPolylineVertex
 10
19.9493624321
 20
-49.7981840864
 30
24.2165164035
 70
        32
  0
VERTEX
  5
460
100
AcDbEntity
  8
SOLIDO_FINALE
  6
CONTINUOUS
 62
        15
100
AcDbVertex
100
AcDb3dPolylineVertex
 10
19.9043515577
 20
-49.7955166164
 30
24.2381872049
 70
        32
  0
VERTEX
  5
462
100
AcDbEntity
  8
SOLIDO_FINALE
  6
CONTINUOUS
 62
        15
100
AcDbVertex
100
AcDb3dPolylineVertex
 10
19.8588441878
 20
-49.7929451159
 30
24.2588653789
 70
        32
  0
VERTEX
  5
464
100
AcDbEntity
  8
SOLIDO_FINALE
  6
CONTINUOUS
 62
        15
100
AcDbVertex
100
AcDb3dPolylineVertex
 10
19.8128755304
 20
-49.7904764723
 30
24.278526386
 70
        32
  0
VERTEX
  5
466
100
AcDbEntity
  8
SOLIDO_FINALE
  6
CONTINUOUS
 62
        15
100
AcDbVertex
100
AcDb3dPolylineVertex
 10
19.7664736728
 20
-49.7881171091
 30
24.297151823
 70
        32
  0
VERTEX
  5
468
100
AcDbEntity
  8
SOLIDO_FINALE
  6
CONTINUOUS
 62
        15
100
AcDbVertex
100
AcDb3dPolylineVertex
 10
19.7196714121
 20
-49.7858713939
 30
24.3147342904
 70
        32
  0
VERTEX
  5
46A
100
AcDbEntity
  8
SOLIDO_FINALE
  6
CONTINUOUS
 62
        15
100
AcDbVertex
100
AcDb3dPolylineVertex
 10
19.6725110211
 20
-49.7837431304
 30
24.3312657551
 70
        32
  0
VERTEX
  5
46C
100
AcDbEntity
  8
SOLIDO_FINALE
  6
CONTINUOUS
 62
        15
100
AcDbVertex
100
AcDb3dPolylineVertex
 10
19.6250347727
 20
-49.7817361223
 30
24.346738184
 70
        32
  0
VERTEX
  5
46E
100
AcDbEntity
  8
SOLIDO_FINALE
  6
CONTINUOUS
 62
        15
100
AcDbVertex
100
AcDb3dPolylineVertex
 10
19.5772849398
 20
-49.7798541731
 30
24.3611435439
 70
        32
  0
VERTEX
  5
470
100
AcDbEntity
  8
SOLIDO_FINALE
  6
CONTINUOUS
 62
        15
100
AcDbVertex
100
AcDb3dPolylineVertex
 10
19.5293037952
 20
-49.7781010867
 30
24.3744738018
 70
        32
  0
VERTEX
  5
472
100
AcDbEntity
  8
SOLIDO_FINALE
  6
CONTINUOUS
 62
        15
100
AcDbVertex
100
AcDb3dPolylineVertex
 10
19.4811336117
 20
-49.7764806667
 30
24.3867209244
 70
        32
  0
VERTEX
  5
474
100
AcDbEntity
  8
SOLIDO_FINALE
  6
CONTINUOUS
 62
        15
100
AcDbVertex
100
AcDb3dPolylineVertex
 10
19.4328166622
 20
-49.7749967167
 30
24.3978768788
 70
        32
  0
VERTEX
  5
476
100
AcDbEntity
  8
SOLIDO_FINALE
  6
CONTINUOUS
 62
        15
100
AcDbVertex
100
AcDb3dPolylineVertex
 10
19.3843952196
 20
-49.7736530404
 30
24.4079336316
 70
        32
  0
VERTEX
  5
478
100
AcDbEntity
  8
SOLIDO_FINALE
  6
CONTINUOUS
 62
        15
100
AcDbVertex
100
AcDb3dPolylineVertex
 10
19.3359121199
 20
-49.7724528754
 30
24.416885945
 70
        32
  0
VERTEX
  5
47A
100
AcDbEntity
  8
SOLIDO_FINALE
  6
CONTINUOUS
 62
        15
100
AcDbVertex
100
AcDb3dPolylineVertex
 10
19.2874128425
 20
-49.7713964672
 30
24.4247416594
 70
        32
  0
VERTEX
  5
47C
100
AcDbEntity
  8
SOLIDO_FINALE
  6
CONTINUOUS
 62
        15
100
AcDbVertex
100
AcDb3dPolylineVertex
 10
19.2389436257
 20
-49.7704831322
 30
24.4315123596
 70
        32
  0
VERTEX
  5
47E
100
AcDbEntity
  8
SOLIDO_FINALE
  6
CONTINUOUS
 62
        15
100
AcDbVertex
100
AcDb3dPolylineVertex
 10
19.1905507078
 20
-49.7697121865
 30
24.4372096301
 70
        32
  0
VERTEX
  5
480
100
AcDbEntity
  8
SOLIDO_FINALE
  6
CONTINUOUS
 62
        15
100
AcDbVertex
100
AcDb3dPolylineVertex
 10
19.1422803272
 20
-49.7690829461
 30
24.4418450556
 70
        32
  0
VERTEX
  5
482
100
AcDbEntity
  8
SOLIDO_FINALE
  6
CONTINUOUS
 62
        15
100
AcDbVertex
100
AcDb3dPolylineVertex
 10
19.094178722
 20
-49.7685947274
 30
24.4454302207
 70
        32
  0
VERTEX
  5
484
100
AcDbEntity
  8
SOLIDO_FINALE
  6
CONTINUOUS
 62
        15
100
AcDbVertex
100
AcDb3dPolylineVertex
 10
19.0462921306
 20
-49.7682468464
 30
24.4479767101
 70
        32
  0
VERTEX
  5
486
100
AcDbEntity
  8
SOLIDO_FINALE
  6
CONTINUOUS
 62
        15
100
AcDbVertex
100
AcDb3dPolylineVertex
 10
18.9986667912
 20
-49.7680386193
 30
24.4494961083
 70
        32
  0
VERTEX
  5
488
100
AcDbEntity
  8
SOLIDO_FINALE
  6
CONTINUOUS
 62
        15
100
AcDbVertex
100
AcDb3dPolylineVertex
 10
18.9513489421
 20
-49.7679693622
 30
24.45
 70
        32
  0
VERTEX
  5
48A
100
AcDbEntity
  8
SOLIDO_FINALE
  6
CONTINUOUS
 62
        15
100
AcDbVertex
100
AcDb3dPolylineVertex
 10
18.904031093
 20
-49.7680386193
 30
24.4494961083
 70
        32
  0
VERTEX
  5
48C
100
AcDbEntity
  8
SOLIDO_FINALE
  6
CONTINUOUS
 62
        15
100
AcDbVertex
100
AcDb3dPolylineVertex
 10
18.8564057536
 20
-49.7682468464
 30
24.4479767101
 70
        32
  0
VERTEX
  5
48E
100
AcDbEntity
  8
SOLIDO_FINALE
  6
CONTINUOUS
 62
        15
100
AcDbVertex
100
AcDb3dPolylineVertex
 10
18.8085191621
 20
-49.7685947274
 30
24.4454302207
 70
        32
  0
VERTEX
  5
490
100
AcDbEntity
  8
SOLIDO_FINALE
  6
CONTINUOUS
 62
        15
100
AcDbVertex
100
AcDb3dPolylineVertex
 10
18.760417557
 20
-49.7690829461
 30
24.4418450556
 70
        32
  0
VERTEX
  5
492
100
AcDbEntity
  8
SOLIDO_FINALE
  6
CONTINUOUS
 62
        15
100
AcDbVertex
100
AcDb3dPolylineVertex
 10
18.7121471763
 20
-49.7697121865
 30
24.4372096301
 70
        32
  0
VERTEX
  5
494
100
AcDbEntity
  8
SOLIDO_FINALE
  6
CONTINUOUS
 62
        15
100
AcDbVertex
100
AcDb3dPolylineVertex
 10
18.6637542584
 20
-49.7704831322
 30
24.4315123596
 70
        32
  0
VERTEX
  5
496
100
AcDbEntity
  8
SOLIDO_FINALE
  6
CONTINUOUS
 62
        15
100
AcDbVertex
100
AcDb3dPolylineVertex
 10
18.6152850417
 20
-49.7713964672
 30
24.4247416594
 70
        32
  0
VERTEX
  5
498
100
AcDbEntity
  8
SOLIDO_FINALE
  6
CONTINUOUS
 62
        15
100
AcDbVertex
100
AcDb3dPolylineVertex
 10
18.5667857643
 20
-49.7724528754
 30
24.416885945
 70
        32
  0
VERTEX
  5
49A
100
AcDbEntity
  8
SOLIDO_FINALE
  6
CONTINUOUS
 62
        15
100
AcDbVertex
100
AcDb3dPolylineVertex
 10
18.5183026645
 20
-49.7736530404
 30
24.4079336316
 70
        32
  0
VERTEX
  5
49C
100
AcDbEntity
  8
SOLIDO_FINALE
  6
CONTINUOUS
 62
        15
100
AcDbVertex
100
AcDb3dPolylineVertex
 10
18.4698812219
 20
-49.7749967167
 30
24.3978768788
 70
        32
  0
VERTEX
  5
49E
100
AcDbEntity
  8
SOLIDO_FINALE
  6
CONTINUOUS
 62
        15
100
AcDbVertex
100
AcDb3dPolylineVertex
 10
18.4215642724
 20
-49.7764806667
 30
24.3867209244
 70
        32
  0
VERTEX
  5
4A0
100
AcDbEntity
  8
SOLIDO_FINALE
  6
CONTINUOUS
 62
        15
100
AcDbVertex
100
AcDb3dPolylineVertex
 10
18.373394089
 20
-49.7781010867
 30
24.3744738018
 70
        32
  0
VERTEX
  5
4A2
100
AcDbEntity
  8
SOLIDO_FINALE
  6
CONTINUOUS
 62
        15
100
AcDbVertex
100
AcDb3dPolylineVertex
 10
18.3254129443
 20
-49.7798541731
 30
24.3611435439
 70
        32
  0
VERTEX
  5
4A4
100
AcDbEntity
  8
SOLIDO_FINALE
  6
CONTINUOUS
 62
        15
100
AcDbVertex
100
AcDb3dPolylineVertex
 10
18.2776631114
 20
-49.7817361223
 30
24.346738184
 70
        32
  0
VERTEX
  5
4A6
100
AcDbEntity
  8
SOLIDO_FINALE
  6
CONTINUOUS
 62
        15
100
AcDbVertex
100
AcDb3dPolylineVertex
 10
18.230186863
 20
-49.7837431304
 30
24.3312657551
 70
        32
  0
VERTEX
  5
4A8
100
AcDbEntity
  8
SOLIDO_FINALE
  6
CONTINUOUS
 62
        15
100
AcDbVertex
100
AcDb3dPolylineVertex
 10
18.183026472
 20
-49.7858713939
 30
24.3147342904
 70
        32
  0
VERTEX
  5
4AA
100
AcDbEntity
  8
SOLIDO_FINALE
  6
CONTINUOUS
 62
        15
100
AcDbVertex
100
AcDb3dPolylineVertex
 10
18.1362242113
 20
-49.7881171091
 30
24.297151823
 70
        32
  0
VERTEX
  5
4AC
100
AcDbEntity
  8
SOLIDO_FINALE
  6
CONTINUOUS
 62
        15
100
AcDbVertex
100
AcDb3dPolylineVertex
 10
18.0898223537
 20
-49.7904764723
 30
24.278526386
 70
        32
  0
VERTEX
  5
4AE
100
AcDbEntity
  8
SOLIDO_FINALE
  6
CONTINUOUS
 62
        15
100
AcDbVertex
100
AcDb3dPolylineVertex
 10
18.0438536963
 20
-49.7929451159
 30
24.2588653789
 70
        32
  0
VERTEX
  5
4B0
100
AcDbEntity
  8
SOLIDO_FINALE
  6
CONTINUOUS
 62
        15
100
AcDbVertex
100
AcDb3dPolylineVertex
 10
17.9983463264
 20
-49.7955166164
 30
24.2381872049
 70
        32
  0
VERTEX
  5
4B2
100
AcDbEntity
  8
SOLIDO_FINALE
  6
CONTINUOUS
 62
        15
100
AcDbVertex
100
AcDb3dPolylineVertex
 10
17.953335452
 20
-49.7981840864
 30
24.2165164035
 70
        32
  0
VERTEX
  5
4B4
100
AcDbEntity
  8
SOLIDO_FINALE
  6
CONTINUOUS
 62
        15
100
AcDbVertex
100
AcDb3dPolylineVertex
 10
17.9088562811
 20
-49.8009406382
 30
24.1938775141
 70
        32
  0
VERTEX
  5
4B6
100
AcDbEntity
  8
SOLIDO_FINALE
  6
CONTINUOUS
 62
        15
100
AcDbVertex
100
AcDb3dPolylineVertex
 10
17.8649440217
 20
-49.8037793842
 30
24.1702950762
 70
        32
  0
VERTEX
  5
4B8
100
AcDbEntity
  8
SOLIDO_FINALE
  6
CONTINUOUS
 62
        15
100
AcDbVertex
100
AcDb3dPolylineVertex
 10
17.8216338819
 20
-49.806693437
 30
24.1457936292
 70
        32
  0
VERTEX
  5
4BA
100
AcDbEntity
  8
SOLIDO_FINALE
  6
CONTINUOUS
 62
        15
100
AcDbVertex
100
AcDb3dPolylineVertex
 10
17.7789610696
 20
-49.8096759089
 30
24.1203977125
 70
        32
  0
VERTEX
  5
4BC
100
AcDbEntity
  8
SOLIDO_FINALE
  6
CONTINUOUS
 62
        15
100
AcDbVertex
100
AcDb3dPolylineVertex
 10
17.7369607929
 20
-49.8127199123
 30
24.0941318655
 70
        32
  0
VERTEX
  5
4BE
100
AcDbEntity
  8
SOLIDO_FINALE
  6
CONTINUOUS
 62
        15
100
AcDbVertex
100
AcDb3dPolylineVertex
 10
17.6956682598
 20
-49.8158185598
 30
24.0670206277
 70
        32
  0
VERTEX
  5
4C0
100
AcDbEntity
  8
SOLIDO_FINALE
  6
CONTINUOUS
 62
        15
100
AcDbVertex
100
AcDb3dPolylineVertex
 10
17.6551170375
 20
-49.8189641026
 30
24.0390908802
 70
        32
  0
VERTEX
  5
4C2
100
AcDbEntity
  8
SOLIDO_FINALE
  6
CONTINUOUS
 62
        15
100
AcDbVertex
100
AcDb3dPolylineVertex
 10
17.6153332758
 20
-49.822148137
 30
24.0103804591
 70
        32
  0
VERTEX
  5
4C4
100
AcDbEntity
  8
SOLIDO_FINALE
  6
CONTINUOUS
 62
        15
100
AcDbVertex
100
AcDb3dPolylineVertex
 10
17.5763410561
 20
-49.8253627925
 30
23.980930336
 70
        32
  0
VERTEX
  5
4C6
100
AcDbEntity
  8
SOLIDO_FINALE
  6
CONTINUOUS
 62
        15
100
AcDbVertex
100
AcDb3dPolylineVertex
 10
17.5381644599
 20
-49.8286001989
 30
23.9507814822
 70
        32
  0
VERTEX
  5
4C8
100
AcDbEntity
  8
SOLIDO_FINALE
  6
CONTINUOUS
 62
        15
100
AcDbVertex
100
AcDb3dPolylineVertex
 10
17.5008275687
 20
-49.8318524857
 30
23.9199748694
 70
        32
  0
VERTEX
  5
4CA
100
AcDbEntity
  8
SOLIDO_FINALE
  6
CONTINUOUS
 62
        15
100
AcDbVertex
100
AcDb3dPolylineVertex
 10
17.4643544641
 20
-49.8351117828
 30
23.8885514691
 70
        32
  0
VERTEX
  5
4CC
100
AcDbEntity
  8
SOLIDO_FINALE
  6
CONTINUOUS
 62
        15
100
AcDbVertex
100
AcDb3dPolylineVertex
 10
17.4287692275
 20
-49.8383702197
 30
23.8565522526
 70
        32
  0
VERTEX
  5
4CE
100
AcDbEntity
  8
SOLIDO_FINALE
  6
CONTINUOUS
 62
        15
100
AcDbVertex
100
AcDb3dPolylineVertex
 10
17.3940959404
 20
-49.8416199262
 30
23.8240181917
 70
        32
  0
VERTEX
  5
4D0
100
AcDbEntity
  8
SOLIDO_FINALE
  6
CONTINUOUS
 62
        15
100
AcDbVertex
100
AcDb3dPolylineVertex
 10
17.3603586844
 20
-49.8448530318
 30
23.7909902577
 70
        32
  0
VERTEX
  5
4D2
100
AcDbEntity
  8
SOLIDO_FINALE
  6
CONTINUOUS
 62
        15
100
AcDbVertex
100
AcDb3dPolylineVertex
 10
17.3273303939
 20
-49.8480868423
 30
23.7572526307
 70
        32
  0
VERTEX
  5
4D4
100
AcDbEntity
  8
SOLIDO_FINALE
  6
CONTINUOUS
 62
        15
100
AcDbVertex
100
AcDb3dPolylineVertex
 10
17.2947960493
 20
-49.8513385694
 30
23.7225790207
 70
        32
  0
VERTEX
  5
4D6
100
AcDbEntity
  8
SOLIDO_FINALE
  6
CONTINUOUS
 62
        15
100
AcDbVertex
100
AcDb3dPolylineVertex
 10
17.2627966165
 20
-49.8546003169
 30
23.6869935097
 70
        32
  0
VERTEX
  5
4D8
100
AcDbEntity
  8
SOLIDO_FINALE
  6
CONTINUOUS
 62
        15
100
AcDbVertex
100
AcDb3dPolylineVertex
 10
17.2313730618
 20
-49.8578641887
 30
23.6505201801
 70
        32
  0
VERTEX
  5
4DA
100
AcDbEntity
  8
SOLIDO_FINALE
  6
CONTINUOUS
 62
        15
100
AcDbVertex
100
AcDb3dPolylineVertex
 10
17.200566351
 20
-49.8611222886
 30
23.6131831141
 70
        32
  0
VERTEX
  5
4DC
100
AcDbEntity
  8
SOLIDO_FINALE
  6
CONTINUOUS
 62
        15
100
AcDbVertex
100
AcDb3dPolylineVertex
 10
17.1704174504
 20
-49.8643667202
 30
23.5750063938
 70
        32
  0
VERTEX
  5
4DE
100
AcDbEntity
  8
SOLIDO_FINALE
  6
CONTINUOUS
 62
        15
100
AcDbVertex
100
AcDb3dPolylineVertex
 10
17.1409673261
 20
-49.8675895874
 30
23.5360141016
 70
        32
  0
VERTEX
  5
4E0
100
AcDbEntity
  8
SOLIDO_FINALE
  6
CONTINUOUS
 62
        15
100
AcDbVertex
100
AcDb3dPolylineVertex
 10
17.112256944
 20
-49.8707829941
 30
23.4962303196
 70
        32
  0
VERTEX
  5
4E2
100
AcDbEntity
  8
SOLIDO_FINALE
  6
CONTINUOUS
 62
        15
100
AcDbVertex
100
AcDb3dPolylineVertex
 10
17.0843272704
 20
-49.8739390439
 30
23.45567913
 70
        32
  0
VERTEX
  5
4E4
100
AcDbEntity
  8
SOLIDO_FINALE
  6
CONTINUOUS
 62
        15
100
AcDbVertex
100
AcDb3dPolylineVertex
 10
17.0572161335
 20
-49.8770492753
 30
23.4143866821
 70
        32
  0
VERTEX
  5
4E6
100
AcDbEntity
  8
SOLIDO_FINALE
  6
CONTINUOUS
 62
        15
100
AcDbVertex
100
AcDb3dPolylineVertex
 10
17.0309504074
 20
-49.8801058221
 30
23.3723865382
 70
        32
  0
VERTEX
  5
4E8
100
AcDbEntity
  8
SOLIDO_FINALE
  6
CONTINUOUS
 62
        15
100
AcDbVertex
100
AcDb3dPolylineVertex
 10
17.0055546266
 20
-49.883101681
 30
23.3297139
 70
        32
  0
VERTEX
  5
4EA
100
AcDbEntity
  8
SOLIDO_FINALE
  6
CONTINUOUS
 62
        15
100
AcDbVertex
100
AcDb3dPolylineVertex
 10
16.9810533254
 20
-49.8860298489
 30
23.2864039693
 70
        32
  0
VERTEX
  5
4EC
100
AcDbEntity
  8
SOLIDO_FINALE
  6
CONTINUOUS
 62
        15
100
AcDbVertex
100
AcDb3dPolylineVertex
 10
16.9574710385
 20
-49.8888833224
 30
23.2424919478
 70
        32
  0
VERTEX
  5
4EE
100
AcDbEntity
  8
SOLIDO_FINALE
  6
CONTINUOUS
 62
        15
100
AcDbVertex
100
AcDb3dPolylineVertex
 10
16.9348323003
 20
-49.8916550984
 30
23.1980130374
 70
        32
  0
VERTEX
  5
4F0
100
AcDbEntity
  8
SOLIDO_FINALE
  6
CONTINUOUS
 62
        15
100
AcDbVertex
100
AcDb3dPolylineVertex
 10
16.9131616453
 20
-49.8943381737
 30
23.1530024399
 70
        32
  0
VERTEX
  5
4F2
100
AcDbEntity
  8
SOLIDO_FINALE
  6
CONTINUOUS
 62
        15
100
AcDbVertex
100
AcDb3dPolylineVertex
 10
16.8924836079
 20
-49.8969255449
 30
23.107495357
 70
        32
  0
VERTEX
  5
4F4
100
AcDbEntity
  8
SOLIDO_FINALE
  6
CONTINUOUS
 62
        15
100
AcDbVertex
100
AcDb3dPolylineVertex
 10
16.8728227226
 20
-49.8994102089
 30
23.0615269904
 70
        32
  0
VERTEX
  5
4F6
100
AcDbEntity
  8
SOLIDO_FINALE
  6
CONTINUOUS
 62
        15
100
AcDbVertex
100
AcDb3dPolylineVertex
 10
16.8541973883
 20
-49.9017855974
 30
23.0151254206
 70
        32
  0
VERTEX
  5
4F8
100
AcDbEntity
  8
SOLIDO_FINALE
  6
CONTINUOUS
 62
        15
100
AcDbVertex
100
AcDb3dPolylineVertex
 10
16.8366150034
 20
-49.9040471973
 30
22.9683234384
 70
        32
  0
VERTEX
  5
4FA
100
AcDbEntity
  8
SOLIDO_FINALE
  6
CONTINUOUS
 62
        15
100
AcDbVertex
100
AcDb3dPolylineVertex
 10
16.8200836017
 20
-49.9061910881
 30
22.9211633112
 70
        32
  0
VERTEX
  5
4FC
100
AcDbEntity
  8
SOLIDO_FINALE
  6
CONTINUOUS
 62
        15
100
AcDbVertex
100
AcDb3dPolylineVertex
 10
16.8046112173
 20
-49.9082133491
 30
22.8736873063
 70
        32
  0
VERTEX
  5
4FE
100
AcDbEntity
  8
SOLIDO_FINALE
  6
CONTINUOUS
 62
        15
100
AcDbVertex
100
AcDb3dPolylineVertex
 10
16.7902058841
 20
-49.9101100599
 30
22.8259376912
 70
        32
  0
VERTEX
  5
500
100
AcDbEntity
  8
SOLIDO_FINALE
  6
CONTINUOUS
 62
        15
100
AcDbVertex
100
AcDb3dPolylineVertex
 10
16.7768756359
 20
-49.9118772998
 30
22.7779567333
 70
        32
  0
VERTEX
  5
502
100
AcDbEntity
  8
SOLIDO_FINALE
  6
CONTINUOUS
 62
        15
100
AcDbVertex
100
AcDb3dPolylineVertex
 10
16.7646285069
 20
-49.9135111484
 30
22.7297867
 70
        32
  0
VERTEX
  5
504
100
AcDbEntity
  8
SOLIDO_FINALE
  6
CONTINUOUS
 62
        15
100
AcDbVertex
100
AcDb3dPolylineVertex
 10
16.7534725309
 20
-49.9150076849
 30
22.6814698586
 70
        32
  0
VERTEX
  5
506
100
AcDbEntity
  8
SOLIDO_FINALE
  6
CONTINUOUS
 62
        15
100
AcDbVertex
100
AcDb3dPolylineVertex
 10
16.7434157418
 20
-49.916362989
 30
22.6330484767
 70
        32
  0
VERTEX
  5
508
100
AcDbEntity
  8
SOLIDO_FINALE
  6
CONTINUOUS
 62
        15
100
AcDbVertex
100
AcDb3dPolylineVertex
 10
16.7344633795
 20
-49.9175737034
 30
22.5845653844
 70
        32
  0
VERTEX
  5
50A
100
AcDbEntity
  8
SOLIDO_FINALE
  6
CONTINUOUS
 62
        15
100
AcDbVertex
100
AcDb3dPolylineVertex
 10
16.7266076072
 20
-49.9186395223
 30
22.5360660578
 70
        32
  0
VERTEX
  5
50C
100
AcDbEntity
  8
SOLIDO_FINALE
  6
CONTINUOUS
 62
        15
100
AcDbVertex
100
AcDb3dPolylineVertex
 10
16.7198368443
 20
-49.9195611023
 30
22.4875967323
 70
        32
  0
VERTEX
  5
50E
100
AcDbEntity
  8
SOLIDO_FINALE
  6
CONTINUOUS
 62
        15
100
AcDbVertex
100
AcDb3dPolylineVertex
 10
16.71413951
 20
-49.9203390996
 30
22.4392036436
 70
        32
  0
VERTEX
  5
510
100
AcDbEntity
  8
SOLIDO_FINALE
  6
CONTINUOUS
 62
        15
100
AcDbVertex
100
AcDb3dPolylineVertex
 10
16.7095040236
 20
-49.9209741709
 30
22.3909330274
 70
        32
  0
VERTEX
  5
512
100
AcDbEntity
  8
SOLIDO_FINALE
  6
CONTINUOUS
 62
        15
100
AcDbVertex
100
AcDb3dPolylineVertex
 10
16.7059188043
 20
-49.9214669725
 30
22.3428311193
 70
        32
  0
VERTEX
  5
514
100
AcDbEntity
  8
SOLIDO_FINALE
  6
CONTINUOUS
 62
        15
100
AcDbVertex
100
AcDb3dPolylineVertex
 10
16.7033722715
 20
-49.9218181609
 30
22.294944155
 70
        32
  0
VERTEX
  5
516
100
AcDbEntity
  8
SOLIDO_FINALE
  6
CONTINUOUS
 62
        15
100
AcDbVertex
100
AcDb3dPolylineVertex
 10
16.7018528443
 20
-49.9220283926
 30
22.24731837
 70
        32
  0
VERTEX
  5
518
100
AcDbEntity
  8
SOLIDO_FINALE
  6
CONTINUOUS
 62
        15
100
AcDbVertex
100
AcDb3dPolylineVertex
 10
16.7013489421
 20
-49.9220983239
 30
22.2
 70
        32
  0
SEQEND
  5
51A
100
AcDbEntity
  8
SOLIDO_FINALE
  6
CONTINUOUS
 62
        15
  0
CIRCLE
  5
51B
100
AcDbEntity
  8
SOLIDO_FINALE
  6
CONTINUOUS
 62
        15
100
AcDbCircle
 10
18.9513489421
 20
-66.2679693622
 30
59.4
 40
3.4
  0
CIRCLE
  5
51C
100
AcDbEntity
  8
SOLIDO_FINALE
  6
CONTINUOUS
 62
        15
100
AcDbCircle
 10
18.9513489421
 20
-66.2679693622
 30
52.65
 40
3.4
  0
CIRCLE
  5
51D
100
AcDbEntity
  8
SOLIDO_FINALE
  6
CONTINUOUS
 62
        15
100
AcDbCircle
 10
18.9513489421
 20
-66.2679693622
 30
51.9
 40
4.15
  0
CIRCLE
  5
51E
100
AcDbEntity
  8
SOLIDO_FINALE
  6
CONTINUOUS
 62
        15
100
AcDbCircle
 10
18.9513489421
 20
-66.2679693622
 30
50.2
 40
4.15
  0
CIRCLE
  5
51F
100
AcDbEntity
  8
SOLIDO_FINALE
  6
CONTINUOUS
 62
        15
100
AcDbCircle
 10
18.9513489421
 20
-66.2679693622
 30
49.9
 40
4.45
  0
CIRCLE
  5
520
100
AcDbEntity
  8
SOLIDO_FINALE
  6
CONTINUOUS
 62
        15
100
AcDbCircle
 10
18.9513489421
 20
-66.2679693622
 30
49.9
 40
7.0
  0
CIRCLE
  5
521
100
AcDbEntity
  8
SOLIDO_FINALE
  6
CONTINUOUS
 62
        15
100
AcDbCircle
 10
18.9513489421
 20
-66.2679693622
 30
58.9
 40
7.0
  0
CIRCLE
  5
522
100
AcDbEntity
  8
SOLIDO_FINALE
  6
CONTINUOUS
 62
        15
100
AcDbCircle
 10
18.9513489421
 20
-66.2679693622
 30
59.9
 40
8.0
  0
ENDBLK
  5
523
100
AcDbEntity
  8
0
  6
CONTINUOUS
100
AcDbBlockEnd
  0
BLOCK
  5
527
100
AcDbEntity
  8
0
100
AcDbBlockBegin
  2
CKCOLL1531
 70
        64
 10
0.0
 20
0.0
 30
0.0
  3
CKCOLL1531
  1

  0
CIRCLE
  5
528
100
AcDbEntity
  8
SOLIDO_FINALE
  6
CONTINUOUS
 62
        15
100
AcDbCircle
 10
-18.9513489421
 20
-66.2679693622
 30
-14.0
 40
11.15
210
0.0
220
0.0
230
-1.0
  0
LINE
  5
529
100
AcDbEntity
  8
SOLIDO_FINALE
  6
CONTINUOUS
 62
        15
100
AcDbLine
 10
18.9513489421
 20
-79.0679693622
 30
4.75
 11
18.9513489421
 21
-79.8179693622
 31
4.0
  0
LINE
  5
52A
100
AcDbEntity
  8
SOLIDO_FINALE
  6
CONTINUOUS
 62
        15
100
AcDbLine
 10
6.1513489421
 20
-66.2679693622
 30
4.75
 11
5.4013489421
 21
-66.2679693622
 31
4.0
  0
LINE
  5
52B
100
AcDbEntity
  8
SOLIDO_FINALE
  6
CONTINUOUS
 62
        15
100
AcDbLine
 10
18.9513489421
 20
-53.4679693622
 30
4.75
 11
18.9513489421
 21
-52.7179693622
 31
4.0
  0
LINE
  5
52C
100
AcDbEntity
  8
SOLIDO_FINALE
  6
CONTINUOUS
 62
        15
100
AcDbLine
 10
31.7513489421
 20
-66.2679693622
 30
4.75
 11
32.5013489421
 21
-66.2679693622
 31
4.0
  0
LINE
  5
52D
100
AcDbEntity
  8
SOLIDO_FINALE
  6
CONTINUOUS
 62
        15
100
AcDbLine
 10
18.9513489421
 20
-79.0679693622
 30
10.2
 11
18.9513489421
 21
-79.0679693622
 31
4.75
  0
LINE
  5
52E
100
AcDbEntity
  8
SOLIDO_FINALE
  6
CONTINUOUS
 62
        15
100
AcDbLine
 10
6.1513489421
 20
-66.2679693622
 30
10.2
 11
6.1513489421
 21
-66.2679693622
 31
4.75
  0
LINE
  5
52F
100
AcDbEntity
  8
SOLIDO_FINALE
  6
CONTINUOUS
 62
        15
100
AcDbLine
 10
18.9513489421
 20
-53.4679693622
 30
10.2
 11
18.9513489421
 21
-53.4679693622
 31
4.75
  0
LINE
  5
530
100
AcDbEntity
  8
SOLIDO_FINALE
  6
CONTINUOUS
 62
        15
100
AcDbLine
 10
31.7513489421
 20
-66.2679693622
 30
10.2
 11
31.7513489421
 21
-66.2679693622
 31
4.75
  0
LINE
  5
531
100
AcDbEntity
  8
SOLIDO_FINALE
  6
CONTINUOUS
 62
        15
100
AcDbLine
 10
18.9513489421
 20
-76.7706673618
 30
13.3619649392
 11
18.9513489421
 21
-79.0679693622
 31
10.2
  0
LINE
  5
532
100
AcDbEntity
  8
SOLIDO_FINALE
  6
CONTINUOUS
 62
        15
100
AcDbLine
 10
8.4486509424
 20
-66.2679693622
 30
13.3619649392
 11
6.1513489421
 21
-66.2679693622
 31
10.2
  0
LINE
  5
533
100
AcDbEntity
  8
SOLIDO_FINALE
  6
CONTINUOUS
 62
        15
100
AcDbLine
 10
18.9513489421
 20
-55.7652713625
 30
13.3619649392
 11
18.9513489421
 21
-53.4679693622
 31
10.2
  0
LINE
  5
534
100
AcDbEntity
  8
SOLIDO_FINALE
  6
CONTINUOUS
 62
        15
100
AcDbLine
 10
29.4540469417
 20
-66.2679693622
 30
13.3619649392
 11
31.7513489421
 21
-66.2679693622
 31
10.2
  0
LINE
  5
535
100
AcDbEntity
  8
SOLIDO_FINALE
  6
CONTINUOUS
 62
        15
100
AcDbLine
 10
18.9513489421
 20
-76.9179693622
 30
14.0
 11
18.9513489421
 21
-76.7706673618
 31
13.3619649392
  0
LINE
  5
536
100
AcDbEntity
  8
SOLIDO_FINALE
  6
CONTINUOUS
 62
        15
100
AcDbLine
 10
8.3013489421
 20
-66.2679693622
 30
14.0
 11
8.4486509424
 21
-66.2679693622
 31
13.3619649392
  0
LINE
  5
537
100
AcDbEntity
  8
SOLIDO_FINALE
  6
CONTINUOUS
 62
        15
100
AcDbLine
 10
18.9513489421
 20
-55.6179693622
 30
14.0
 11
18.9513489421
 21
-55.7652713625
 31
13.3619649392
  0
LINE
  5
538
100
AcDbEntity
  8
SOLIDO_FINALE
  6
CONTINUOUS
 62
        15
100
AcDbLine
 10
29.6013489421
 20
-66.2679693622
 30
14.0
 11
29.4540469417
 21
-66.2679693622
 31
13.3619649392
  0
ARC
  5
539
100
AcDbEntity
  8
SOLIDO_FINALE
  6
CONTINUOUS
 62
        15
100
AcDbCircle
 10
18.4403587746
 20
3.4259057228
 30
66.2679693622
 40
15.0
210
0.0
220
-1.0
230
0.0
100
AcDbArc
 50
135.1753338724
 51
177.806585677
  0
ARC
  5
53A
100
AcDbEntity
  8
SOLIDO_FINALE
  6
CONTINUOUS
 62
        15
100
AcDbCircle
 10
65.7569791947
 20
3.4259057228
 30
-18.9513489421
 40
15.0
210
-1.0
220
0.0
230
0.0
100
AcDbArc
 50
135.1753338724
 51
177.806585677
  0
ARC
  5
53B
100
AcDbEntity
  8
SOLIDO_FINALE
  6
CONTINUOUS
 62
        15
100
AcDbCircle
 10
-19.4623391095
 20
3.4259057228
 30
-66.2679693622
 40
15.0
210
0.0
220
1.0
230
0.0
100
AcDbArc
 50
135.1753338724
 51
177.806585677
  0
ARC
  5
53C
100
AcDbEntity
  8
SOLIDO_FINALE
  6
CONTINUOUS
 62
        15
100
AcDbCircle
 10
-66.7789595296
 20
3.4259057228
 30
18.9513489421
 40
15.0
210
1.0
220
0.0
230
0.0
100
AcDbArc
 50
135.1753338724
 51
177.806585677
  0
CIRCLE
  5
53D
100
AcDbEntity
  8
SOLIDO_FINALE
  6
CONTINUOUS
 62
        15
100
AcDbCircle
 10
-18.9513489421
 20
-66.2679693622
 30
-12.3057691412
 40
12.6001599351
210
0.0
220
0.0
230
-1.0
  0
CIRCLE
  5
53E
100
AcDbEntity
  8
SOLIDO_FINALE
  6
CONTINUOUS
 62
        15
100
AcDbCircle
 10
-18.9513489421
 20
-66.2679693622
 30
-10.4152584902
 40
13.7831018266
210
0.0
220
0.0
230
-1.0
  0
CIRCLE
  5
53F
100
AcDbEntity
  8
SOLIDO_FINALE
  6
CONTINUOUS
 62
        15
100
AcDbCircle
 10
-18.9513489421
 20
-66.2679693622
 30
-8.3702557436
 40
14.6726780214
210
0.0
220
0.0
230
-1.0
  0
CIRCLE
  5
540
100
AcDbEntity
  8
SOLIDO_FINALE
  6
CONTINUOUS
 62
        15
100
AcDbCircle
 10
-18.9513489421
 20
-66.2679693622
 30
-6.2159634788
 40
15.2492253982
210
0.0
220
0.0
230
-1.0
  0
CIRCLE
  5
541
100
AcDbEntity
  8
SOLIDO_FINALE
  6
CONTINUOUS
 62
        15
100
AcDbCircle
 10
-18.9513489421
 20
-66.2679693622
 30
-4.0
 40
13.55
210
0.0
220
0.0
230
-1.0
  0
CIRCLE
  5
542
100
AcDbEntity
  8
SOLIDO_FINALE
  6
CONTINUOUS
 62
        15
100
AcDbCircle
 10
-18.9513489421
 20
-66.2679693622
 30
-4.0
 40
15.5
210
0.0
220
0.0
230
-1.0
  0
CIRCLE
  5
543
100
AcDbEntity
  8
SOLIDO_FINALE
  6
CONTINUOUS
 62
        15
100
AcDbCircle
 10
-18.9513489421
 20
-66.2679693622
 30
-4.75
 40
12.8
210
0.0
220
0.0
230
-1.0
  0
CIRCLE
  5
544
100
AcDbEntity
  8
SOLIDO_FINALE
  6
CONTINUOUS
 62
        15
100
AcDbCircle
 10
-18.9513489421
 20
-66.2679693622
 30
-10.2
 40
12.8
210
0.0
220
0.0
230
-1.0
  0
CIRCLE
  5
545
100
AcDbEntity
  8
SOLIDO_FINALE
  6
CONTINUOUS
 62
        15
100
AcDbCircle
 10
-18.9513489421
 20
-66.2679693622
 30
-13.3619649392
 40
10.5026979996
210
0.0
220
0.0
230
-1.0
  0
CIRCLE
  5
546
100
AcDbEntity
  8
SOLIDO_FINALE
  6
CONTINUOUS
 62
        15
100
AcDbCircle
 10
-18.9513489421
 20
-66.2679693622
 30
-14.0
 40
10.65
210
0.0
220
0.0
230
-1.0
  0
ENDBLK
  5
547
100
AcDbEntity
  8
0
  6
CONTINUOUS
100
AcDbBlockEnd
  0
BLOCK
  5
54B
100
AcDbEntity
  8
0
100
AcDbBlockBegin
  2
CKCOLL4911
 70
        64
 10
0.0
 20
0.0
 30
0.0
  3
CKCOLL4911
  1

  0
LINE
  5
54C
100
AcDbEntity
  8
SOLIDO_FINALE
  6
CONTINUOUS
 62
         5
100
AcDbLine
 10
-31.0486510579
 20
-198.3108578019
 30
141.197835193
 11
-31.0486510579
 21
-199.2654287098
 31
135.7841945575
  0
LINE
  5
54D
100
AcDbEntity
  8
SOLIDO_FINALE
  6
CONTINUOUS
 62
         5
100
AcDbLine
 10
-24.0486510579
 20
-205.204512073
 30
142.4133724367
 11
-24.0486510579
 21
-206.1590829809
 31
136.9997318012
  0
LINE
  5
54E
100
AcDbEntity
  8
SOLIDO_FINALE
  6
CONTINUOUS
 62
         5
100
AcDbLine
 10
-31.0486510579
 20
-212.0981663441
 30
143.6289096804
 11
-31.0486510579
 21
-213.052737252
 31
138.2152690449
  0
LINE
  5
54F
100
AcDbEntity
  8
SOLIDO_FINALE
  6
CONTINUOUS
 62
         5
100
AcDbLine
 10
-38.0486510579
 20
-205.204512073
 30
142.4133724367
 11
-38.0486510579
 21
-206.1590829809
 31
136.9997318012
  0
LINE
  5
550
100
AcDbEntity
  8
SOLIDO_FINALE
  6
CONTINUOUS
 62
         5
100
AcDbLine
 10
-40.0486510579
 20
-205.204512073
 30
142.4133724367
 11
-40.0486510579
 21
-206.1590829809
 31
136.9997318012
  0
LINE
  5
551
100
AcDbEntity
  8
SOLIDO_FINALE
  6
CONTINUOUS
 62
         5
100
AcDbLine
 10
-31.0486510579
 20
-196.3412422959
 30
140.8505388377
 11
-31.0486510579
 21
-197.2958132038
 31
135.4368982022
  0
LINE
  5
552
100
AcDbEntity
  8
SOLIDO_FINALE
  6
CONTINUOUS
 62
         5
100
AcDbLine
 10
-22.0486510579
 20
-205.204512073
 30
142.4133724367
 11
-22.0486510579
 21
-206.1590829809
 31
136.9997318012
  0
LINE
  5
553
100
AcDbEntity
  8
SOLIDO_FINALE
  6
CONTINUOUS
 62
         5
100
AcDbLine
 10
-31.0486510579
 20
-214.0677818501
 30
143.9762060357
 11
-31.0486510579
 21
-215.022352758
 31
138.5625654002
  0
CIRCLE
  5
554
100
AcDbEntity
  8
SOLIDO_FINALE
  6
CONTINUOUS
 62
         5
100
AcDbCircle
 10
31.0486510579
 20
200.258
 30
-136.2679693622
 40
7.0
210
0.0
220
1.0
230
0.0
  0
ARC
  5
555
100
AcDbEntity
  8
SOLIDO_FINALE
  6
CONTINUOUS
 62
         5
100
AcDbCircle
 10
-136.2679693622
 20
130.258
 30
-38.0486510579
 40
70.0
210
1.0
220
0.0
230
0.0
100
AcDbArc
 50
0.0
 51
170.0
  0
ARC
  5
556
100
AcDbEntity
  8
SOLIDO_FINALE
  6
CONTINUOUS
 62
         5
100
AcDbCircle
 10
-136.2679693622
 20
130.258
 30
-31.0486510579
 40
77.0
210
1.0
220
0.0
230
0.0
100
AcDbArc
 50
0.0
 51
170.0
  0
ARC
  5
557
100
AcDbEntity
  8
SOLIDO_FINALE
  6
CONTINUOUS
 62
         5
100
AcDbCircle
 10
-136.2679693622
 20
130.258
 30
-24.0486510579
 40
70.0
210
1.0
220
0.0
230
0.0
100
AcDbArc
 50
0.0
 51
170.0
  0
ARC
  5
558
100
AcDbEntity
  8
SOLIDO_FINALE
  6
CONTINUOUS
 62
         5
100
AcDbCircle
 10
-136.2679693622
 20
130.258
 30
-31.0486510579
 40
63.0
210
1.0
220
0.0
230
0.0
100
AcDbArc
 50
0.0
 51
170.0
  0
CIRCLE
  5
559
100
AcDbEntity
  8
SOLIDO_FINALE
  6
CONTINUOUS
 62
         5
100
AcDbCircle
 10
31.0486510579
 20
200.258
 30
-136.2679693622
 40
9.0
210
0.0
220
1.0
230
0.0
  0
ARC
  5
55A
100
AcDbEntity
  8
SOLIDO_FINALE
  6
CONTINUOUS
 62
         5
100
AcDbCircle
 10
-136.2679693622
 20
130.258
 30
-40.0486510579
 40
70.0
210
1.0
220
0.0
230
0.0
100
AcDbArc
 50
0.0
 51
170.0
  0
ARC
  5
55B
100
AcDbEntity
  8
SOLIDO_FINALE
  6
CONTINUOUS
 62
         5
100
AcDbCircle
 10
-136.2679693622
 20
130.258
 30
-31.0486510579
 40
79.0
210
1.0
220
0.0
230
0.0
100
AcDbArc
 50
0.0
 51
170.0
  0
ARC
  5
55C
100
AcDbEntity
  8
SOLIDO_FINALE
  6
CONTINUOUS
 62
         5
100
AcDbCircle
 10
-136.2679693622
 20
130.258
 30
-22.0486510579
 40
70.0
210
1.0
220
0.0
230
0.0
100
AcDbArc
 50
0.0
 51
170.0
  0
ARC
  5
55D
100
AcDbEntity
  8
SOLIDO_FINALE
  6
CONTINUOUS
 62
         5
100
AcDbCircle
 10
-136.2679693622
 20
130.258
 30
-31.0486510579
 40
61.0
210
1.0
220
0.0
230
0.0
100
AcDbArc
 50
0.0
 51
170.0
  0
LINE
  5
55E
100
AcDbEntity
  8
SOLIDO_FINALE
  6
CONTINUOUS
 62
         5
100
AcDbLine
 10
-38.0486510579
 20
-66.2679693622
 30
19.258
 11
-38.0486510579
 21
-66.2679693622
 31
130.258
  0
LINE
  5
55F
100
AcDbEntity
  8
SOLIDO_FINALE
  6
CONTINUOUS
 62
         5
100
AcDbLine
 10
-31.0486510579
 20
-73.2679693622
 30
19.258
 11
-31.0486510579
 21
-73.2679693622
 31
130.258
  0
LINE
  5
560
100
AcDbEntity
  8
SOLIDO_FINALE
  6
CONTINUOUS
 62
         5
100
AcDbLine
 10
-24.0486510579
 20
-66.2679693622
 30
19.258
 11
-24.0486510579
 21
-66.2679693622
 31
130.258
  0
LINE
  5
561
100
AcDbEntity
  8
SOLIDO_FINALE
  6
CONTINUOUS
 62
         5
100
AcDbLine
 10
-31.0486510579
 20
-59.2679693622
 30
19.258
 11
-31.0486510579
 21
-59.2679693622
 31
130.258
  0
LINE
  5
562
100
AcDbEntity
  8
SOLIDO_FINALE
  6
CONTINUOUS
 62
         5
100
AcDbLine
 10
-40.0486510579
 20
-66.2679693622
 30
-5.0
 11
-40.0486510579
 21
-66.2679693622
 31
130.258
  0
LINE
  5
563
100
AcDbEntity
  8
SOLIDO_FINALE
  6
CONTINUOUS
 62
         5
100
AcDbLine
 10
-31.0486510579
 20
-75.2679693622
 30
-5.0
 11
-31.0486510579
 21
-75.2679693622
 31
130.258
  0
LINE
  5
564
100
AcDbEntity
  8
SOLIDO_FINALE
  6
CONTINUOUS
 62
         5
100
AcDbLine
 10
-22.0486510579
 20
-66.2679693622
 30
-5.0
 11
-22.0486510579
 21
-66.2679693622
 31
130.258
  0
LINE
  5
565
100
AcDbEntity
  8
SOLIDO_FINALE
  6
CONTINUOUS
 62
         5
100
AcDbLine
 10
-31.0486510579
 20
-57.2679693622
 30
-5.0
 11
-31.0486510579
 21
-57.2679693622
 31
130.258
  0
CIRCLE
  5
566
100
AcDbEntity
  8
SOLIDO_FINALE
  6
CONTINUOUS
 62
         5
100
AcDbCircle
 10
-31.0486510579
 20
-66.2679693622
 30
-5.0
 40
9.0
  0
CIRCLE
  5
567
100
AcDbEntity
  8
SOLIDO_FINALE
  6
CONTINUOUS
 62
         5
100
AcDbCircle
 10
31.0486510579
 20
-66.2679693622
 30
-19.258
 40
7.0
210
0.0
220
0.0
230
-1.0
  0
CIRCLE
  5
568
100
AcDbEntity
  8
SOLIDO_FINALE
  6
CONTINUOUS
 62
         5
100
AcDbCircle
 10
-31.0486510579
 20
226.8168170416
 30
-99.1192489693
 40
7.0
210
0.0
220
-0.1736481776669336
230
-0.9848077530122076
  0
CIRCLE
  5
569
100
AcDbEntity
  8
SOLIDO_FINALE
  6
CONTINUOUS
 62
         5
100
AcDbCircle
 10
-31.0486510579
 20
226.8168170416
 30
-104.6164037377
 40
7.0
210
0.0
220
-0.1736481776669336
230
-0.9848077530122076
  0
CIRCLE
  5
56A
100
AcDbEntity
  8
SOLIDO_FINALE
  6
CONTINUOUS
 62
         5
100
AcDbCircle
 10
31.0486510579
 20
226.8168170416
 30
99.1192489693
 40
9.0
210
0.0
220
0.1736481776669198
230
0.98480775301221
  0
CIRCLE
  5
56B
100
AcDbEntity
  8
SOLIDO_FINALE
  6
CONTINUOUS
 62
         5
100
AcDbCircle
 10
31.0486510579
 20
226.8168170416
 30
104.6164037377
 40
9.0
210
0.0
220
0.1736481776669198
230
0.98480775301221
  0
CIRCLE
  5
56C
100
AcDbEntity
  8
SOLIDO_FINALE
  6
CONTINUOUS
 62
         5
100
AcDbCircle
 10
-31.0486510579
 20
-66.2679693622
 30
130.258
 40
7.0
  0
CIRCLE
  5
56D
100
AcDbEntity
  8
SOLIDO_FINALE
  6
CONTINUOUS
 62
         5
100
AcDbCircle
 10
31.0486510579
 20
-66.2679693622
 30
-130.258
 40
9.0
210
0.0
220
0.0
230
-1.0
  0
ENDBLK
  5
56E
100
AcDbEntity
  8
0
  6
CONTINUOUS
100
AcDbBlockEnd
  0
BLOCK
  5
572
100
AcDbEntity
  8
0
100
AcDbBlockBegin
  2
CKCOLL4919
 70
        64
 10
0.0
 20
0.0
 30
0.0
  3
CKCOLL4919
  1

  0
LINE
  5
573
100
AcDbEntity
  8
SOLIDO_FINALE
  6
CONTINUOUS
 62
         5
100
AcDbLine
 10
-31.0486510579
 20
-215.1091768469
 30
138.0701615237
 11
-31.0486510579
 21
-217.9743717784
 31
121.820833599
  0
LINE
  5
574
100
AcDbEntity
  8
SOLIDO_FINALE
  6
CONTINUOUS
 62
         5
100
AcDbLine
 10
-40.0486510579
 20
-206.2459070698
 30
136.5073279247
 11
-40.0486510579
 21
-209.1111020013
 31
120.258
  0
LINE
  5
575
100
AcDbEntity
  8
SOLIDO_FINALE
  6
CONTINUOUS
 62
         5
100
AcDbLine
 10
-31.0486510579
 20
-197.3826372926
 30
134.9444943257
 11
-31.0486510579
 21
-200.2478322242
 31
118.695166401
  0
LINE
  5
576
100
AcDbEntity
  8
SOLIDO_FINALE
  6
CONTINUOUS
 62
         5
100
AcDbLine
 10
-22.0486510579
 20
-206.2459070698
 30
136.5073279247
 11
-22.0486510579
 21
-209.1111020013
 31
120.258
  0
CIRCLE
  5
577
100
AcDbEntity
  8
SOLIDO_FINALE
  6
CONTINUOUS
 62
         5
100
AcDbCircle
 10
31.0486510579
 20
226.8168170416
 30
82.1192489693
 40
9.0
210
0.0
220
0.1736481776669198
230
0.98480775301221
  0
CIRCLE
  5
578
100
AcDbEntity
  8
SOLIDO_FINALE
  6
CONTINUOUS
 62
         5
100
AcDbCircle
 10
31.0486510579
 20
226.8168170416
 30
98.6192489693
 40
9.0
210
0.0
220
0.1736481776669198
230
0.98480775301221
  0
ENDBLK
  5
579
100
AcDbEntity
  8
0
  6
CONTINUOUS
100
AcDbBlockEnd
  0
BLOCK
  5
57D
100
AcDbEntity
  8
0
100
AcDbBlockBegin
  2
CKCOLL5553
 70
        64
 10
0.0
 20
0.0
 30
0.0
  3
CKCOLL5553
  1

  0
CIRCLE
  5
57E
100
AcDbEntity
  8
SOLIDO_FINALE
  6
CONTINUOUS
 62
       121
100
AcDbCircle
 10
-18.9513489421
 20
-66.2679693622
 30
12.0
 40
16.5
210
0.0
220
0.0
230
-1.0
  0
LINE
  5
57F
100
AcDbEntity
  8
SOLIDO_FINALE
  6
CONTINUOUS
 62
       121
100
AcDbLine
 10
18.9513489421
 20
-82.7679693622
 30
-12.0
 11
18.9513489421
 21
-82.7679693622
 31
-57.0
  0
LINE
  5
580
100
AcDbEntity
  8
SOLIDO_FINALE
  6
CONTINUOUS
 62
       121
100
AcDbLine
 10
2.4513489421
 20
-66.2679693622
 30
-12.0
 11
2.4513489421
 21
-66.2679693622
 31
-57.0
  0
LINE
  5
581
100
AcDbEntity
  8
SOLIDO_FINALE
  6
CONTINUOUS
 62
       121
100
AcDbLine
 10
18.9513489421
 20
-49.7679693622
 30
-12.0
 11
18.9513489421
 21
-49.7679693622
 31
-57.0
  0
LINE
  5
582
100
AcDbEntity
  8
SOLIDO_FINALE
  6
CONTINUOUS
 62
       121
100
AcDbLine
 10
35.4513489421
 20
-66.2679693622
 30
-12.0
 11
35.4513489421
 21
-66.2679693622
 31
-57.0
  0
CIRCLE
  5
583
100
AcDbEntity
  8
SOLIDO_FINALE
  6
CONTINUOUS
 62
       121
100
AcDbCircle
 10
18.9513489421
 20
-66.2679693622
 30
-57.0
 40
16.5
  0
ENDBLK
  5
584
100
AcDbEntity
  8
0
  6
CONTINUOUS
100
AcDbBlockEnd
  0
ENDSEC
  0
SECTION
  2
ENTITIES
  0
INSERT
  5
4B
100
AcDbEntity
  8
0
  6
CONTINUOUS
100
AcDbBlockReference
  2
CKCOLL4857
 10
0.0
 20
0.0
 30
0.0
  0
INSERT
  5
525
100
AcDbEntity
  8
0
  6
CONTINUOUS
100
AcDbBlockReference
  2
CKCOLL1862
 10
0.0
 20
0.0
 30
0.0
  0
INSERT
  5
549
100
AcDbEntity
  8
0
  6
CONTINUOUS
100
AcDbBlockReference
  2
CKCOLL1531
 10
0.0
 20
0.0
 30
0.0
  0
INSERT
  5
570
100
AcDbEntity
  8
0
  6
CONTINUOUS
100
AcDbBlockReference
  2
CKCOLL4911
 10
0.0
 20
0.0
 30
0.0
  0
INSERT
  5
57B
100
AcDbEntity
  8
0
  6
CONTINUOUS
100
AcDbBlockReference
  2
CKCOLL4919
 10
0.0
 20
0.0
 30
0.0
  0
INSERT
  5
586
100
AcDbEntity
  8
0
  6
CONTINUOUS
100
AcDbBlockReference
  2
CKCOLL5553
 10
0.0
 20
0.0
 30
0.0
  0
ENDSEC
  0
SECTION
  2
OBJECTS
  0
DICTIONARY
  5
19
100
AcDbDictionary
  3
ACAD_GROUP
350
1A
  3
ACAD_MLINESTYLE
350
1B
  0
DICTIONARY
  5
1A
102
{ACAD_REACTORS
330
19
102
}
100
AcDbDictionary
  0
DICTIONARY
  5
1B
102
{ACAD_REACTORS
330
19
102
}
100
AcDbDictionary
  3
STANDARD
350
1C
  0
MLINESTYLE
  5
1C
102
{ACAD_REACTORS
330
1B
102
}
100
AcDbMlineStyle
  2
STANDARD
 70
         0
  3

 62
         0
 51
90.0
 52
90.0
 71
         2
 49
0.5
 62
       256
  6
BYLAYER
 49
-0.5
 62
       256
  6
BYLAYER
  0
ENDSEC
  0
EOF
