  0
SECTION
  2
HEADER
  9
$ACADVER
  1
AC1014
  9
$ACADMAINTVER
 70
         0
  9
$DWGCODEPAGE
  3
DOS850
  9
$INSBASE
 10
0.0
 20
0.0
 30
0.0
  9
$EXTMIN
 10
-280.0426039788
 20
-270.9385504785
 30
0.0
  9
$EXTMAX
 10
399.4320596401
 20
188.674453789
 30
0.0
  9
$LIMMIN
 10
0.0
 20
0.0
  9
$LIMMAX
 10
0.0
 20
0.0
  9
$ORTHOMODE
 70
         0
  9
$REGENMODE
 70
         1
  9
$FILLMODE
 70
         1
  9
$QTEXTMODE
 70
         0
  9
$MIRRTEXT
 70
         1
  9
$DRAGMODE
 70
         2
  9
$LTSCALE
 40
1.0
  9
$OSMODE
 70
         0
  9
$ATTMODE
 70
         1
  9
$TEXTSIZE
 40
5.0
  9
$TRACEWID
 40
0.05
  9
$TEXTSTYLE
  7
STANDARD
  9
$CLAYER
  8
0
  9
$CELTYPE
  6
CONTINUOUS
  9
$CECOLOR
 62
         3
  9
$CELTSCALE
 40
1.0
  9
$DELOBJ
 70
         1
  9
$DISPSILH
 70
         0
  9
$DIMSCALE
 40
1.0
  9
$DIMASZ
 40
0.18
  9
$DIMEXO
 40
0.0625
  9
$DIMDLI
 40
0.38
  9
$DIMRND
 40
0.0
  9
$DIMDLE
 40
0.0
  9
$DIMEXE
 40
0.25
  9
$DIMTP
 40
0.01
  9
$DIMTM
 40
-0.01
  9
$DIMTXT
 40
5.0
  9
$DIMCEN
 40
0.09
  9
$DIMTSZ
 40
0.0
  9
$DIMTOL
 70
         0
  9
$DIMLIM
 70
         0
  9
$DIMTIH
 70
         1
  9
$DIMTOH
 70
         1
  9
$DIMSE1
 70
         0
  9
$DIMSE2
 70
         0
  9
$DIMTAD
 70
         0
  9
$DIMZIN
 70
         0
  9
$DIMBLK
  1

  9
$DIMASO
 70
         1
  9
$DIMSHO
 70
         1
  9
$DIMPOST
  1

  9
$DIMAPOST
  1

  9
$DIMALT
 70
         0
  9
$DIMALTD
 70
         2
  9
$DIMALTF
 40
25.4
  9
$DIMLFAC
 40
1.0
  9
$DIMTOFL
 70
         0
  9
$DIMTVP
 40
0.0
  9
$DIMTIX
 70
         0
  9
$DIMSOXD
 70
         0
  9
$DIMSAH
 70
         0
  9
$DIMBLK1
  1

  9
$DIMBLK2
  1

  9
$DIMSTYLE
  2
STANDARD
  9
$DIMCLRD
 70
         0
  9
$DIMCLRE
 70
         0
  9
$DIMCLRT
 70
         3
  9
$DIMTFAC
 40
1.0
  9
$DIMGAP
 40
0.09
  9
$DIMJUST
 70
         0
  9
$DIMSD1
 70
         0
  9
$DIMSD2
 70
         0
  9
$DIMTOLJ
 70
         1
  9
$DIMTZIN
 70
         0
  9
$DIMALTZ
 70
         0
  9
$DIMALTTZ
 70
         0
  9
$DIMFIT
 70
         3
  9
$DIMUPT
 70
         0
  9
$DIMUNIT
 70
         2
  9
$DIMDEC
 70
         4
  9
$DIMTDEC
 70
         4
  9
$DIMALTU
 70
         2
  9
$DIMALTTD
 70
         2
  9
$DIMTXSTY
  7
STANDARD
  9
$DIMAUNIT
 70
         0
  9
$LUNITS
 70
         2
  9
$LUPREC
 70
        10
  9
$SKETCHINC
 40
0.1
  9
$FILLETRAD
 40
0.0
  9
$AUNITS
 70
         0
  9
$AUPREC
 70
         0
  9
$MENU
  1
acad
  9
$ELEVATION
 40
0.0
  9
$PELEVATION
 40
0.0
  9
$THICKNESS
 40
0.0
  9
$LIMCHECK
 70
         0
  9
$BLIPMODE
 70
         1
  9
$CHAMFERA
 40
0.0
  9
$CHAMFERB
 40
0.0
  9
$CHAMFERC
 40
0.0
  9
$CHAMFERD
 40
0.0
  9
$SKPOLY
 70
         0
  9
$TDCREATE
 40
0.000000000
  9
$TDUPDATE
 40
0.000000000
  9
$TDINDWG
 40
0.0000000000
  9
$TDUSRTIMER
 40
0.0000000000
  9
$USRTIMER
 70
         1
  9
$ANGBASE
 50
0.0
  9
$ANGDIR
 70
         0
  9
$PDMODE
 70
         2
  9
$PDSIZE
 40
0.0
  9
$PLINEWID
 40
0.0
  9
$COORDS
 70
         0
  9
$SPLFRAME
 70
         0
  9
$SPLINETYPE
 70
         6
  9
$SPLINESEGS
 70
         8
  9
$ATTDIA
 70
         0
  9
$ATTREQ
 70
         1
  9
$HANDLING
 70
         1
  9
$HANDSEED
  5
15A
  9
$SURFTAB1
 70
         6
  9
$SURFTAB2
 70
         6
  9
$SURFTYPE
 70
         6
  9
$SURFU
 70
         6
  9
$SURFV
 70
         6
  9
$UCSNAME
  2

  9
$UCSORG
 10
0.0
 20
0.0
 30
0.0
  9
$UCSXDIR
 10
1.0
 20
0.0
 30
0.0
  9
$UCSYDIR
 10
0.0
 20
1.0
 30
0.0
  9
$PUCSNAME
  2

  9
$PUCSORG
 10
0.0
 20
0.0
 30
0.0
  9
$PUCSXDIR
 10
1.0
 20
0.0
 30
0.0
  9
$PUCSYDIR
 10
0.0
 20
1.0
 30
0.0
  9
$USERI1
 70
         0
  9
$USERI2
 70
         0
  9
$USERI3
 70
         0
  9
$USERI4
 70
         0
  9
$USERI5
 70
         0
  9
$USERR1
 40
0.0
  9
$USERR2
 40
0.0
  9
$USERR3
 40
0.0
  9
$USERR4
 40
0.0
  9
$USERR5
 40
0.0
  9
$WORLDVIEW
 70
         1
  9
$SHADEDGE
 70
         3
  9
$SHADEDIF
 70
        70
  9
$TILEMODE
 70
         1
  9
$MAXACTVP
 70
        16
  9
$PINSBASE
 10
0.0
 20
0.0
 30
0.0
  9
$PLIMCHECK
 70
         0
  9
$PEXTMIN
 10
1.0000000000E+20
 20
1.0000000000E+20
 30
1.0000000000E+20
  9
$PEXTMAX
 10
-1.0000000000E+20
 20
-1.0000000000E+20
 30
-1.0000000000E+20
  9
$PLIMMIN
 10
0.0
 20
0.0
  9
$PLIMMAX
 10
12.0
 20
9.0
  9
$UNITMODE
 70
         0
  9
$VISRETAIN
 70
         0
  9
$PLINEGEN
 70
         1
  9
$PSLTSCALE
 70
         0
  9
$TREEDEPTH
 70
      3020
  9
$PICKSTYLE
 70
         1
  9
$CMLSTYLE
  2
STANDARD
  9
$CMLJUST
 70
         0
  9
$CMLSCALE
 40
1.0
  9
$PROXYGRAPHICS
 70
         0
  9
$MEASUREMENT
 70
         0
  0
ENDSEC
  0
SECTION
  2
CLASSES
  0
CLASS
  1
LWPOLYLINE
  2
AcDbPolyline
  3
"AutoCAD"
 90
        0
280
         0
281
         1
  0
CLASS
  1
IMAGE
  2
AcDbRasterImage
  3
ISM
 90
      127
280
         0
281
         1
  0
CLASS
  1
OLE2FRAME
  2
AcDbOle2Frame
  3
""
 90
        0
280
         0
281
         1
  0
CLASS
  1
HATCH
  2
AcDbHatch
  3
"ACAD_SEDONA"
 90
        0
280
         0
281
         1
  0
CLASS
  1
DICTIONARYVAR
  2
AcDbDictionaryVar
  3
"AutoCAD"
 90
        0
280
         0
281
         0
  0
CLASS
  1
RASTERVARIABLES
  2
AcDbRasterVariables
  3
ISM
 90
        0
280
         0
281
         0
  0
CLASS
  1
IMAGEDEF
  2
AcDbRasterImageDef
  3
ISM
 90
        0
280
         0
281
         0
  0
CLASS
  1
IMAGEDEF_REACTOR
  2
AcDbRasterImageDefReactor
  3
ISM
 90
        1
280
         0
281
         0
  0
CLASS
  1
IDBUFFER
  2
AcDbIdBuffer
  3
"Acad"
 90
        0
280
         0
281
         0
  0
CLASS
  1
SPATIAL_FILTER
  2
AcDbSpatialFilter
  3
"Acad"
 90
        0
280
         0
281
         0
  0
CLASS
  1
XRECORD
  2
AcDbXrecord
  3
"<Built In>"
 90
        0
280
         0
281
         0
  0
CLASS
  1
SORTENTSTABLE
  2
AcDbSortentsTable
  3
"AutoCAD"
 90
        0
280
         0
281
         0
  0
CLASS
  1
LAYER_INDEX
  2
AcDbLayerIndex
  3
"Acad"
 90
        0
280
         0
281
         0
  0
CLASS
  1
SPATIAL_INDEX
  2
AcDbSpatialIndex
  3
"Acad"
 90
        0
280
         0
281
         0
  0
CLASS
  1
OBJECT_PTR
  2
CAseDLPNTableRecord
  3
"ASE-LPNTableRecord"
 90
        1
280
         0
281
         0
  0
CLASS
  1
LAYOUT
  2
AcDbLayout
  3
"AutoCAD 2000"
 90
        1
280
         0
281
         0
  0
CLASS
  1
PLOTSETTINGS
  2
AcDbPlotSettings
  3
"AutoCAD 2000"
 90
        1
280
         0
281
         0
  0
CLASS
  1
ACDBDICTIONARYWDFLT
  2
AcDbDictionaryWithDefault
  3
"AutoCAD 2000"
 90
        1
280
         0
281
         0
  0
CLASS
  1
ACDBPLACEHOLDER
  2
AcDbPlaceHolder
  3
"AutoCAD 2000"
 90
        1
280
         0
281
         0
  0
CLASS
  1
VBA_PROJECT
  2
AcDbVbaProject
  3
"acadvba"
 90
        1
280
         0
281
         0
  0
CLASS
  1
WIPEOUT
  2
AcDbWipeout
  3
WipeOut|AutoCAD Express Tool|expresstools@autodesk.com
 90
      127
280
         0
281
         1
  0
CLASS
  1
WIPEOUTVARIABLES
  2
AcDbWipeoutVariables
  3
WipeOut|AutoCAD Express Tool|expresstools@autodesk.com
 90
        0
280
         0
281
         0
  0
CLASS
  1
RTEXT
  2
RText
  3
RText|AutoCAD Express Tool|expresstools@autodesk.com
 90
        0
280
         0
281
         1
  0
CLASS
  1
ARCALIGNEDTEXT
  2
AcDbArcAlignedText
  3
ATEXT|AutoCAD Express Tool|expresstools@autodesk.com
 90
        0
280
         0
281
         1
  0
ENDSEC
  0
SECTION
  2
TABLES
  0
TABLE
  2
VPORT
  5
7
100
AcDbSymbolTable
 70
         1
  0
VPORT
  5
15
100
AcDbSymbolTableRecord
100
AcDbViewportTableRecord
  2
*ACTIVE
 70
         0
 10
0.0
 20
0.0
 11
1.0
 21
1.0
 12
59.6947278306
 22
-41.1320483448
 13
0.0
 23
0.0
 14
1.0
 24
1.0
 15
0.0
 25
0.0
 16
0.0
 26
0.0
 36
1.0
 17
0.0
 27
0.0
 37
0.0
 40
459.6130042675
 41
1.4783625731
 42
50.0
 43
0.0
 44
0.0
 50
0.0
 51
0.0
 71
         0
 72
       100
 73
         1
 74
         1
 75
         0
 76
         0
 77
         0
 78
         0
  0
ENDTAB
  0
TABLE
  2
LTYPE
  5
4
100
AcDbSymbolTable
 70
         6
  0
LTYPE
  5
11
100
AcDbSymbolTableRecord
100
AcDbLinetypeTableRecord
  2
BYBLOCK
 70
        64
  3

 72
        65
 73
         0
 40
0.0
  0
LTYPE
  5
12
100
AcDbSymbolTableRecord
100
AcDbLinetypeTableRecord
  2
BYLAYER
 70
        64
  3

 72
        65
 73
         0
 40
0.0
  0
LTYPE
  5
13
100
AcDbSymbolTableRecord
100
AcDbLinetypeTableRecord
  2
CONTINUOUS
 70
        64
  3
Solid line
 72
        65
 73
         0
 40
0.0
  0
LTYPE
  5
1D
100
AcDbSymbolTableRecord
100
AcDbLinetypeTableRecord
  2
DASHED
 70
        64
  3
_ _ _ _ _ _ _ _ _ _ _ _ _ _ _ _
 72
        65
 73
         2
 40
0.2
 49
0.1
 74
         0
 49
-0.1
 74
         0
  0
LTYPE
  5
1E
100
AcDbSymbolTableRecord
100
AcDbLinetypeTableRecord
  2
CENTER
 70
        64
  3
___ _ ___ _ ___ _ ___ _ ___ _ ___ _ ___ _ ___ _
 72
        65
 73
         4
 40
0.95
 49
0.625
 74
         0
 49
-0.125
 74
         0
 49
0.075
 74
         0
 49
-0.125
 74
         0
  0
LTYPE
  5
1F
100
AcDbSymbolTableRecord
100
AcDbLinetypeTableRecord
  2
PHANTOM
 70
        64
  3
______  __  __  ______  __  __  ______  __  __  
 72
        65
 73
         6
 40
1.025
 49
0.625
 74
         0
 49
-0.125
 74
         0
 49
0.075
 74
         0
 49
-0.125
 74
         0
 49
0.075
 74
         0
 49
-0.125
 74
         0
  0
ENDTAB
  0
TABLE
  2
LAYER
  5
2
100
AcDbSymbolTable
 70
         2
  0
LAYER
  5
14
100
AcDbSymbolTableRecord
100
AcDbLayerTableRecord
  2
0
 70
         0
 62
         7
  6
CONTINUOUS
  0
LAYER
  5
21
100
AcDbSymbolTableRecord
100
AcDbLayerTableRecord
  2
CK_LEVEL_1
 70
         0
 62
         7
  6
CONTINUOUS
  0
ENDTAB
  0
TABLE
  2
STYLE
  5
3
100
AcDbSymbolTable
 70
         1
  0
STYLE
  5
17
100
AcDbSymbolTableRecord
100
AcDbTextStyleTableRecord
  2
STANDARD
 70
         0
 40
0.0
 41
1.0
 50
0.0
 71
         0
 42
0.0
  3
txt
  4

  0
ENDTAB
  0
TABLE
  2
VIEW
  5
5
100
AcDbSymbolTable
 70
         0
  0
ENDTAB
  0
TABLE
  2
UCS
  5
6
100
AcDbSymbolTable
 70
         1
  0
UCS
  5
20
100
AcDbSymbolTableRecord
100
AcDbUCSTableRecord
  2
CK_VIEW_1
 70
         0
 10
0.0
 20
0.0
 30
1.0
 11
1.0
 21
0.0
 31
0.0
 12
0.0
 22
1.0
 32
0.0
  0
ENDTAB
  0
TABLE
  2
APPID
  5
8
100
AcDbSymbolTable
 70
         1
  0
APPID
  5
16
100
AcDbSymbolTableRecord
100
AcDbRegAppTableRecord
  2
ACAD
 70
         0
  0
ENDTAB
  0
TABLE
  2
DIMSTYLE
  5
9
100
AcDbSymbolTable
 70
         1
  0
DIMSTYLE
105
18
100
AcDbSymbolTableRecord
100
AcDbDimStyleTableRecord
  2
STANDARD
 70
         0
  3

  4

  5

  6

  7

 40
1.0
 41
0.18
 42
0.0625
 43
0.38
 44
0.18
 45
0.0
 46
0.0
 47
0.0
 48
0.0
 71
         0
 72
         0
 73
         1
 74
         1
 75
         0
 76
         0
 77
         0
 78
         0
140
0.18
141
0.09
142
0.0
143
25.4
144
1.0
145
0.0
146
1.0
147
0.09
170
         0
171
         2
172
         0
173
         0
174
         0
175
         0
176
         0
177
         0
178
         0
270
         2
271
         4
272
         4
273
         2
274
         2
275
         0
280
         0
281
         0
282
         0
283
         1
284
         0
285
         0
286
         0
287
         0
288
         0
340
17
  0
ENDTAB
  0
TABLE
  2
BLOCK_RECORD
  5
1
100
AcDbSymbolTable
 70
        10
  0
BLOCK_RECORD
  5
A
100
AcDbSymbolTableRecord
100
AcDbBlockTableRecord
  2
*MODEL_SPACE
  0
BLOCK_RECORD
  5
B
100
AcDbSymbolTableRecord
100
AcDbBlockTableRecord
  2
*PAPER_SPACE
  0
BLOCK_RECORD
  5
22
100
AcDbSymbolTableRecord
100
AcDbBlockTableRecord
  2
CKCOLL3041
  0
BLOCK_RECORD
  5
33
100
AcDbSymbolTableRecord
100
AcDbBlockTableRecord
  2
CKCOLL3027
  0
BLOCK_RECORD
  5
50
100
AcDbSymbolTableRecord
100
AcDbBlockTableRecord
  2
CKCOLL2957
  0
BLOCK_RECORD
  5
98
100
AcDbSymbolTableRecord
100
AcDbBlockTableRecord
  2
CKCOLL2868
  0
BLOCK_RECORD
  5
A9
100
AcDbSymbolTableRecord
100
AcDbBlockTableRecord
  2
CKCOLL2823
  0
BLOCK_RECORD
  5
C6
100
AcDbSymbolTableRecord
100
AcDbBlockTableRecord
  2
CKCOLL2079
  0
BLOCK_RECORD
  5
10E
100
AcDbSymbolTableRecord
100
AcDbBlockTableRecord
  2
CKCOLL3241
  0
BLOCK_RECORD
  5
119
100
AcDbSymbolTableRecord
100
AcDbBlockTableRecord
  2
CKCOLL3248
  0
BLOCK_RECORD
  5
126
100
AcDbSymbolTableRecord
100
AcDbBlockTableRecord
  2
CKCOLL3311
  0
BLOCK_RECORD
  5
143
100
AcDbSymbolTableRecord
100
AcDbBlockTableRecord
  2
CKCOLL3441
  0
ENDTAB
  0
ENDSEC
  0
SECTION
  2
BLOCKS
  0
BLOCK
  5
D
100
AcDbEntity
  8
0
100
AcDbBlockBegin
  2
*MODEL_SPACE
 70
         0
 10
0.0
 20
0.0
 30
0.0
  3
*MODEL_SPACE
  1

  0
ENDBLK
  5
E
100
AcDbEntity
  8
0
100
AcDbBlockEnd
  0
BLOCK
  5
F
100
AcDbEntity
 67
         1
  8
0
100
AcDbBlockBegin
  2
*PAPER_SPACE
 70
         0
 10
0.0
 20
0.0
 30
0.0
  3
*PAPER_SPACE
  1

  0
ENDBLK
  5
10
100
AcDbEntity
 67
         1
  8
0
100
AcDbBlockEnd
  0
BLOCK
  5
23
100
AcDbEntity
  8
0
100
AcDbBlockBegin
  2
CKCOLL3041
 70
        64
 10
0.0
 20
0.0
 30
0.0
  3
CKCOLL3041
  1

  0
CIRCLE
  5
24
100
AcDbEntity
  8
CK_LEVEL_1
  6
CONTINUOUS
 62
         3
100
AcDbCircle
 10
0.4913504733
 20
-23.5113131686
 30
-49.8
 40
2.05
  0
CIRCLE
  5
25
100
AcDbEntity
  8
CK_LEVEL_1
  6
CONTINUOUS
 62
         3
100
AcDbCircle
 10
-0.4913504733
 20
-23.5113131686
 30
52.8
 40
2.25
210
0.0
220
0.0
230
-1.0
  0
ARC
  5
26
100
AcDbEntity
  8
CK_LEVEL_1
  6
CONTINUOUS
 62
         3
100
AcDbCircle
 10
-21.4613131686
 20
-50.0
 30
0.4913504733
 40
0.2
210
1.0
220
0.0
230
0.0
100
AcDbArc
 50
0.0
 51
90.0
  0
ARC
  5
27
100
AcDbEntity
  8
CK_LEVEL_1
  6
CONTINUOUS
 62
         3
100
AcDbCircle
 10
2.5413504733
 20
-50.0
 30
23.5113131686
 40
0.2
210
0.0
220
-1.0
230
0.0
100
AcDbArc
 50
0.0
 51
90.0
  0
ARC
  5
28
100
AcDbEntity
  8
CK_LEVEL_1
  6
CONTINUOUS
 62
         3
100
AcDbCircle
 10
25.5613131686
 20
-50.0
 30
-0.4913504733
 40
0.2
210
-1.0
220
0.0
230
0.0
100
AcDbArc
 50
0.0
 51
90.0
  0
ARC
  5
29
100
AcDbEntity
  8
CK_LEVEL_1
  6
CONTINUOUS
 62
         3
100
AcDbCircle
 10
1.5586495267
 20
-50.0
 30
-23.5113131686
 40
0.2
210
0.0
220
1.0
230
0.0
100
AcDbArc
 50
0.0
 51
90.0
  0
CIRCLE
  5
2A
100
AcDbEntity
  8
CK_LEVEL_1
  6
CONTINUOUS
 62
         3
100
AcDbCircle
 10
-0.4913504733
 20
-23.5113131686
 30
49.8585786438
 40
2.1914213562
210
0.0
220
0.0
230
-1.0
  0
LINE
  5
2B
100
AcDbEntity
  8
CK_LEVEL_1
  6
CONTINUOUS
 62
         3
100
AcDbLine
 10
0.4913504733
 20
-25.7613131686
 30
-50.0
 11
0.4913504733
 21
-25.7613131686
 31
-52.8
  0
LINE
  5
2C
100
AcDbEntity
  8
CK_LEVEL_1
  6
CONTINUOUS
 62
         3
100
AcDbLine
 10
2.7413504733
 20
-23.5113131686
 30
-50.0
 11
2.7413504733
 21
-23.5113131686
 31
-52.8
  0
LINE
  5
2D
100
AcDbEntity
  8
CK_LEVEL_1
  6
CONTINUOUS
 62
         3
100
AcDbLine
 10
0.4913504733
 20
-21.2613131686
 30
-50.0
 11
0.4913504733
 21
-21.2613131686
 31
-52.8
  0
LINE
  5
2E
100
AcDbEntity
  8
CK_LEVEL_1
  6
CONTINUOUS
 62
         3
100
AcDbLine
 10
-1.7586495267
 20
-23.5113131686
 30
-50.0
 11
-1.7586495267
 21
-23.5113131686
 31
-52.8
  0
CIRCLE
  5
2F
100
AcDbEntity
  8
CK_LEVEL_1
  6
CONTINUOUS
 62
         3
100
AcDbCircle
 10
-0.4913504733
 20
-23.5113131686
 30
50.0
 40
2.25
210
0.0
220
0.0
230
-1.0
  0
ENDBLK
  5
30
100
AcDbEntity
  8
0
  6
CONTINUOUS
100
AcDbBlockEnd
  0
BLOCK
  5
34
100
AcDbEntity
  8
0
100
AcDbBlockBegin
  2
CKCOLL3027
 70
        64
 10
0.0
 20
0.0
 30
0.0
  3
CKCOLL3027
  1

  0
CIRCLE
  5
35
100
AcDbEntity
  8
CK_LEVEL_1
  6
CONTINUOUS
 62
         1
100
AcDbCircle
 10
23.500000022
 20
-68.8589739706
 30
49.8099722949
 40
26.5
210
-1.0
220
0.0
230
0.0
  0
CIRCLE
  5
36
100
AcDbEntity
  8
CK_LEVEL_1
  6
CONTINUOUS
 62
         1
100
AcDbCircle
 10
-23.500000022
 20
-68.8589739706
 30
-49.8099722949
 40
29.75
210
1.0
220
0.0
230
0.0
  0
CIRCLE
  5
37
100
AcDbEntity
  8
CK_LEVEL_1
  6
CONTINUOUS
 62
         1
100
AcDbCircle
 10
23.5000000221
 20
-68.8589739706
 30
47.0099722949
 40
15.0
210
-1.0
220
0.0
230
0.0
  0
CIRCLE
  5
38
100
AcDbEntity
  8
CK_LEVEL_1
  6
CONTINUOUS
 62
         1
100
AcDbCircle
 10
-23.5000000221
 20
-68.8589739706
 30
-48.3099722949
 40
15.0
210
1.0
220
0.0
230
0.0
  0
CIRCLE
  5
39
100
AcDbEntity
  8
CK_LEVEL_1
  6
CONTINUOUS
 62
         1
100
AcDbCircle
 10
23.500000022
 20
-68.8589739706
 30
47.0099722949
 40
29.45
210
-1.0
220
0.0
230
0.0
  0
CIRCLE
  5
3A
100
AcDbEntity
  8
CK_LEVEL_1
  6
CONTINUOUS
 62
         1
100
AcDbCircle
 10
23.500000022
 20
-68.8589739706
 30
47.3099722949
 40
29.75
210
-1.0
220
0.0
230
0.0
  0
CIRCLE
  5
3B
100
AcDbEntity
  8
CK_LEVEL_1
  6
CONTINUOUS
 62
         1
100
AcDbCircle
 10
23.500000022
 20
-68.8589739706
 30
48.3099722949
 40
26.5
210
-1.0
220
0.0
230
0.0
  0
LINE
  5
3C
100
AcDbEntity
  8
CK_LEVEL_1
  6
CONTINUOUS
 62
         1
100
AcDbLine
 10
-47.0099722949
 20
-8.5000000221
 30
-68.8589739706
 11
-48.3099722949
 21
-8.5000000221
 31
-68.8589739706
  0
LINE
  5
3D
100
AcDbEntity
  8
CK_LEVEL_1
  6
CONTINUOUS
 62
         1
100
AcDbLine
 10
-47.0099722949
 20
-23.5000000221
 30
-83.8589739706
 11
-48.3099722949
 21
-23.5000000221
 31
-83.8589739706
  0
LINE
  5
3E
100
AcDbEntity
  8
CK_LEVEL_1
  6
CONTINUOUS
 62
         1
100
AcDbLine
 10
-47.0099722949
 20
-38.5000000221
 30
-68.8589739706
 11
-48.3099722949
 21
-38.5000000221
 31
-68.8589739706
  0
LINE
  5
3F
100
AcDbEntity
  8
CK_LEVEL_1
  6
CONTINUOUS
 62
         1
100
AcDbLine
 10
-47.0099722949
 20
-23.5000000221
 30
-53.8589739706
 11
-48.3099722949
 21
-23.5000000221
 31
-53.8589739706
  0
ARC
  5
40
100
AcDbEntity
  8
CK_LEVEL_1
  6
CONTINUOUS
 62
         1
100
AcDbCircle
 10
-47.3099722949
 20
-98.3089739706
 30
23.500000022
 40
0.3
210
0.0
220
-1.0
230
0.0
100
AcDbArc
 50
270.0
 51
360.0
  0
ARC
  5
41
100
AcDbEntity
  8
CK_LEVEL_1
  6
CONTINUOUS
 62
         1
100
AcDbCircle
 10
-47.3099722949
 20
-52.950000022
 30
-68.8589739706
 40
0.3
100
AcDbArc
 50
270.0
 51
360.0
  0
ARC
  5
42
100
AcDbEntity
  8
CK_LEVEL_1
  6
CONTINUOUS
 62
         1
100
AcDbCircle
 10
47.3099722949
 20
-39.4089739706
 30
-23.500000022
 40
0.3
210
0.0
220
1.0
230
0.0
100
AcDbArc
 50
90.0
 51
180.0
  0
ARC
  5
43
100
AcDbEntity
  8
CK_LEVEL_1
  6
CONTINUOUS
 62
         1
100
AcDbCircle
 10
47.3099722949
 20
5.949999978
 30
68.8589739706
 40
0.3
210
0.0
220
0.0
230
-1.0
100
AcDbArc
 50
90.0
 51
180.0
  0
CIRCLE
  5
44
100
AcDbEntity
  8
CK_LEVEL_1
  6
CONTINUOUS
 62
         1
100
AcDbCircle
 10
23.500000022
 20
-68.8589739706
 30
47.0978402605
 40
29.6621320344
210
-1.0
220
0.0
230
0.0
  0
LINE
  5
45
100
AcDbEntity
  8
CK_LEVEL_1
  6
CONTINUOUS
 62
         1
100
AcDbLine
 10
-49.8099722949
 20
-23.500000022
 30
-42.3589739706
 11
-48.3099722949
 21
-23.500000022
 31
-42.3589739706
  0
LINE
  5
46
100
AcDbEntity
  8
CK_LEVEL_1
  6
CONTINUOUS
 62
         1
100
AcDbLine
 10
-49.8099722949
 20
2.999999978
 30
-68.8589739706
 11
-48.3099722949
 21
2.999999978
 31
-68.8589739706
  0
LINE
  5
47
100
AcDbEntity
  8
CK_LEVEL_1
  6
CONTINUOUS
 62
         1
100
AcDbLine
 10
-49.8099722949
 20
-23.500000022
 30
-95.3589739706
 11
-48.3099722949
 21
-23.500000022
 31
-95.3589739706
  0
LINE
  5
48
100
AcDbEntity
  8
CK_LEVEL_1
  6
CONTINUOUS
 62
         1
100
AcDbLine
 10
-49.8099722949
 20
-50.000000022
 30
-68.8589739706
 11
-48.3099722949
 21
-50.000000022
 31
-68.8589739706
  0
LINE
  5
49
100
AcDbEntity
  8
CK_LEVEL_1
  6
CONTINUOUS
 62
         1
100
AcDbLine
 10
-49.8099722949
 20
-23.500000022
 30
-39.1089739706
 11
-47.3099722949
 21
-23.500000022
 31
-39.1089739706
  0
LINE
  5
4A
100
AcDbEntity
  8
CK_LEVEL_1
  6
CONTINUOUS
 62
         1
100
AcDbLine
 10
-49.8099722949
 20
6.249999978
 30
-68.8589739706
 11
-47.3099722949
 21
6.249999978
 31
-68.8589739706
  0
LINE
  5
4B
100
AcDbEntity
  8
CK_LEVEL_1
  6
CONTINUOUS
 62
         1
100
AcDbLine
 10
-49.8099722949
 20
-23.500000022
 30
-98.6089739706
 11
-47.3099722949
 21
-23.500000022
 31
-98.6089739706
  0
LINE
  5
4C
100
AcDbEntity
  8
CK_LEVEL_1
  6
CONTINUOUS
 62
         1
100
AcDbLine
 10
-49.8099722949
 20
-53.250000022
 30
-68.8589739706
 11
-47.3099722949
 21
-53.250000022
 31
-68.8589739706
  0
ENDBLK
  5
4D
100
AcDbEntity
  8
0
  6
CONTINUOUS
100
AcDbBlockEnd
  0
BLOCK
  5
51
100
AcDbEntity
  8
0
100
AcDbBlockBegin
  2
CKCOLL2957
 70
        64
 10
0.0
 20
0.0
 30
0.0
  3
CKCOLL2957
  1

  0
CIRCLE
  5
52
100
AcDbEntity
  8
CK_LEVEL_1
  6
CONTINUOUS
 62
       163
100
AcDbCircle
 10
-23.5000000221
 20
-68.8589739706
 30
26.1900277051
 40
3.4
210
1.0
220
0.0
230
0.0
  0
ARC
  5
53
100
AcDbEntity
  8
CK_LEVEL_1
  6
CONTINUOUS
 62
       163
100
AcDbCircle
 10
-29.1900277051
 20
-39.5000000221
 30
68.8589739706
 40
0.5
210
0.0
220
0.0
230
-1.0
100
AcDbArc
 50
180.0
 51
270.0
  0
ARC
  5
54
100
AcDbEntity
  8
CK_LEVEL_1
  6
CONTINUOUS
 62
       163
100
AcDbCircle
 10
-29.1900277051
 20
-84.8589739706
 30
-23.5000000221
 40
0.5
210
0.0
220
1.0
230
0.0
100
AcDbArc
 50
180.0
 51
270.0
  0
ARC
  5
55
100
AcDbEntity
  8
CK_LEVEL_1
  6
CONTINUOUS
 62
       163
100
AcDbCircle
 10
29.1900277051
 20
-7.5000000221
 30
-68.8589739706
 40
0.5
100
AcDbArc
 50
0.0
 51
90.0
  0
ARC
  5
56
100
AcDbEntity
  8
CK_LEVEL_1
  6
CONTINUOUS
 62
       163
100
AcDbCircle
 10
29.1900277051
 20
-52.8589739706
 30
23.5000000221
 40
0.5
210
0.0
220
-1.0
230
0.0
100
AcDbArc
 50
0.0
 51
90.0
  0
CIRCLE
  5
57
100
AcDbEntity
  8
CK_LEVEL_1
  6
CONTINUOUS
 62
       163
100
AcDbCircle
 10
-23.5000000221
 20
-68.8589739706
 30
29.5435810957
 40
16.3535533906
210
1.0
220
0.0
230
0.0
  0
LINE
  5
58
100
AcDbEntity
  8
CK_LEVEL_1
  6
CONTINUOUS
 62
       163
100
AcDbLine
 10
29.1900277051
 20
-40.0000000221
 30
-68.8589739706
 11
-25.3099722949
 21
-40.0000000221
 31
-68.8589739706
  0
LINE
  5
59
100
AcDbEntity
  8
CK_LEVEL_1
  6
CONTINUOUS
 62
       163
100
AcDbLine
 10
29.1900277051
 20
-23.5000000221
 30
-85.3589739706
 11
-25.3099722949
 21
-23.5000000221
 31
-85.3589739706
  0
LINE
  5
5A
100
AcDbEntity
  8
CK_LEVEL_1
  6
CONTINUOUS
 62
       163
100
AcDbLine
 10
29.1900277051
 20
-7.0000000221
 30
-68.8589739706
 11
-25.3099722949
 21
-7.0000000221
 31
-68.8589739706
  0
LINE
  5
5B
100
AcDbEntity
  8
CK_LEVEL_1
  6
CONTINUOUS
 62
       163
100
AcDbLine
 10
29.1900277051
 20
-23.5000000221
 30
-52.3589739706
 11
-25.3099722949
 21
-23.5000000221
 31
-52.3589739706
  0
LINE
  5
5C
100
AcDbEntity
  8
CK_LEVEL_1
  6
CONTINUOUS
 62
       163
100
AcDbLine
 10
-20.6449087854
 20
-38.0000000221
 30
-68.8589739706
 11
-25.3099722949
 21
-39.2500000221
 31
-68.8589739706
  0
LINE
  5
5D
100
AcDbEntity
  8
CK_LEVEL_1
  6
CONTINUOUS
 62
       163
100
AcDbLine
 10
-20.6449087854
 20
-23.5000000221
 30
-83.3589739706
 11
-25.3099722949
 21
-23.5000000221
 31
-84.6089739706
  0
LINE
  5
5E
100
AcDbEntity
  8
CK_LEVEL_1
  6
CONTINUOUS
 62
       163
100
AcDbLine
 10
-20.6449087854
 20
-9.0000000221
 30
-68.8589739706
 11
-25.3099722949
 21
-7.7500000221
 31
-68.8589739706
  0
LINE
  5
5F
100
AcDbEntity
  8
CK_LEVEL_1
  6
CONTINUOUS
 62
       163
100
AcDbLine
 10
-20.6449087854
 20
-23.5000000221
 30
-54.3589739706
 11
-25.3099722949
 21
-23.5000000221
 31
-53.1089739706
  0
LINE
  5
60
100
AcDbEntity
  8
CK_LEVEL_1
  6
CONTINUOUS
 62
       163
100
AcDbLine
 10
25.6900277051
 20
-38.0000000221
 30
-68.8589739706
 11
-20.6449087854
 21
-38.0000000221
 31
-68.8589739706
  0
LINE
  5
61
100
AcDbEntity
  8
CK_LEVEL_1
  6
CONTINUOUS
 62
       163
100
AcDbLine
 10
25.6900277051
 20
-23.5000000221
 30
-83.3589739706
 11
-20.6449087854
 21
-23.5000000221
 31
-83.3589739706
  0
LINE
  5
62
100
AcDbEntity
  8
CK_LEVEL_1
  6
CONTINUOUS
 62
       163
100
AcDbLine
 10
25.6900277051
 20
-9.0000000221
 30
-68.8589739706
 11
-20.6449087854
 21
-9.0000000221
 31
-68.8589739706
  0
LINE
  5
63
100
AcDbEntity
  8
CK_LEVEL_1
  6
CONTINUOUS
 62
       163
100
AcDbLine
 10
25.6900277051
 20
-23.5000000221
 30
-54.3589739706
 11
-20.6449087854
 21
-23.5000000221
 31
-54.3589739706
  0
ARC
  5
64
100
AcDbEntity
  8
CK_LEVEL_1
  6
CONTINUOUS
 62
       163
100
AcDbCircle
 10
-25.6900277051
 20
-82.3589739706
 30
-23.5000000221
 40
1.0
210
0.0
220
1.0
230
0.0
100
AcDbArc
 50
180.0
 51
270.0
  0
ARC
  5
65
100
AcDbEntity
  8
CK_LEVEL_1
  6
CONTINUOUS
 62
       163
100
AcDbCircle
 10
25.6900277051
 20
-10.0000000221
 30
-68.8589739706
 40
1.0
100
AcDbArc
 50
0.0
 51
90.0
  0
ARC
  5
66
100
AcDbEntity
  8
CK_LEVEL_1
  6
CONTINUOUS
 62
       163
100
AcDbCircle
 10
25.6900277051
 20
-55.3589739706
 30
23.5000000221
 40
1.0
210
0.0
220
-1.0
230
0.0
100
AcDbArc
 50
0.0
 51
90.0
  0
ARC
  5
67
100
AcDbEntity
  8
CK_LEVEL_1
  6
CONTINUOUS
 62
       163
100
AcDbCircle
 10
-25.6900277051
 20
-37.0000000221
 30
68.8589739706
 40
1.0
210
0.0
220
0.0
230
-1.0
100
AcDbArc
 50
180.0
 51
270.0
  0
CIRCLE
  5
68
100
AcDbEntity
  8
CK_LEVEL_1
  6
CONTINUOUS
 62
       163
100
AcDbCircle
 10
-23.5000000221
 20
-68.8589739706
 30
26.3971344863
 40
14.2071067812
210
1.0
220
0.0
230
0.0
  0
ARC
  5
69
100
AcDbEntity
  8
CK_LEVEL_1
  6
CONTINUOUS
 62
       163
100
AcDbCircle
 10
-25.6900277051
 20
-76.8589739706
 30
-23.5000000221
 40
1.0
210
0.0
220
1.0
230
0.0
100
AcDbArc
 50
90.0
 51
180.0
  0
ARC
  5
6A
100
AcDbEntity
  8
CK_LEVEL_1
  6
CONTINUOUS
 62
       163
100
AcDbCircle
 10
25.6900277051
 20
-15.5000000221
 30
-68.8589739706
 40
1.0
100
AcDbArc
 50
270.0
 51
360.0
  0
ARC
  5
6B
100
AcDbEntity
  8
CK_LEVEL_1
  6
CONTINUOUS
 62
       163
100
AcDbCircle
 10
25.6900277051
 20
-60.8589739706
 30
23.5000000221
 40
1.0
210
0.0
220
-1.0
230
0.0
100
AcDbArc
 50
270.0
 51
360.0
  0
ARC
  5
6C
100
AcDbEntity
  8
CK_LEVEL_1
  6
CONTINUOUS
 62
       163
100
AcDbCircle
 10
-25.6900277051
 20
-31.5000000221
 30
68.8589739706
 40
1.0
210
0.0
220
0.0
230
-1.0
100
AcDbArc
 50
90.0
 51
180.0
  0
CIRCLE
  5
6D
100
AcDbEntity
  8
CK_LEVEL_1
  6
CONTINUOUS
 62
       163
100
AcDbCircle
 10
-23.5000000221
 20
-68.8589739706
 30
26.3971344863
 40
7.2928932188
210
1.0
220
0.0
230
0.0
  0
LINE
  5
6E
100
AcDbEntity
  8
CK_LEVEL_1
  6
CONTINUOUS
 62
       163
100
AcDbLine
 10
25.6900277051
 20
-30.5000000221
 30
-68.8589739706
 11
16.6900277051
 21
-30.5000000221
 31
-68.8589739706
  0
LINE
  5
6F
100
AcDbEntity
  8
CK_LEVEL_1
  6
CONTINUOUS
 62
       163
100
AcDbLine
 10
25.6900277051
 20
-23.5000000221
 30
-75.8589739706
 11
16.6900277051
 21
-23.5000000221
 31
-75.8589739706
  0
LINE
  5
70
100
AcDbEntity
  8
CK_LEVEL_1
  6
CONTINUOUS
 62
       163
100
AcDbLine
 10
25.6900277051
 20
-16.5000000221
 30
-68.8589739706
 11
16.6900277051
 21
-16.5000000221
 31
-68.8589739706
  0
LINE
  5
71
100
AcDbEntity
  8
CK_LEVEL_1
  6
CONTINUOUS
 62
       163
100
AcDbLine
 10
25.6900277051
 20
-23.5000000221
 30
-61.8589739706
 11
16.6900277051
 21
-23.5000000221
 31
-61.8589739706
  0
ARC
  5
72
100
AcDbEntity
  8
CK_LEVEL_1
  6
CONTINUOUS
 62
       163
100
AcDbCircle
 10
-16.9900277051
 20
-73.3089739706
 30
-23.5000000221
 40
0.3
210
0.0
220
1.0
230
0.0
100
AcDbArc
 50
0.0
 51
90.0
  0
ARC
  5
73
100
AcDbEntity
  8
CK_LEVEL_1
  6
CONTINUOUS
 62
       163
100
AcDbCircle
 10
16.9900277051
 20
-19.0500000221
 30
-68.8589739706
 40
0.3
100
AcDbArc
 50
180.0
 51
270.0
  0
ARC
  5
74
100
AcDbEntity
  8
CK_LEVEL_1
  6
CONTINUOUS
 62
       163
100
AcDbCircle
 10
16.9900277051
 20
-64.4089739706
 30
23.5000000221
 40
0.3
210
0.0
220
-1.0
230
0.0
100
AcDbArc
 50
180.0
 51
270.0
  0
ARC
  5
75
100
AcDbEntity
  8
CK_LEVEL_1
  6
CONTINUOUS
 62
       163
100
AcDbCircle
 10
-16.9900277051
 20
-27.9500000221
 30
68.8589739706
 40
0.3
210
0.0
220
0.0
230
-1.0
100
AcDbArc
 50
0.0
 51
90.0
  0
CIRCLE
  5
76
100
AcDbEntity
  8
CK_LEVEL_1
  6
CONTINUOUS
 62
       163
100
AcDbCircle
 10
-23.5000000221
 20
-68.8589739706
 30
16.7778956708
 40
4.2378679656
210
1.0
220
0.0
230
0.0
  0
LINE
  5
77
100
AcDbEntity
  8
CK_LEVEL_1
  6
CONTINUOUS
 62
       163
100
AcDbLine
 10
18.6900277051
 20
-27.6500000221
 30
-68.8589739706
 11
16.9900277051
 21
-27.6500000221
 31
-68.8589739706
  0
LINE
  5
78
100
AcDbEntity
  8
CK_LEVEL_1
  6
CONTINUOUS
 62
       163
100
AcDbLine
 10
18.6900277051
 20
-23.5000000221
 30
-73.0089739706
 11
16.9900277051
 21
-23.5000000221
 31
-73.0089739706
  0
LINE
  5
79
100
AcDbEntity
  8
CK_LEVEL_1
  6
CONTINUOUS
 62
       163
100
AcDbLine
 10
18.6900277051
 20
-19.3500000221
 30
-68.8589739706
 11
16.9900277051
 21
-19.3500000221
 31
-68.8589739706
  0
LINE
  5
7A
100
AcDbEntity
  8
CK_LEVEL_1
  6
CONTINUOUS
 62
       163
100
AcDbLine
 10
18.6900277051
 20
-23.5000000221
 30
-64.7089739706
 11
16.9900277051
 21
-23.5000000221
 31
-64.7089739706
  0
LINE
  5
7B
100
AcDbEntity
  8
CK_LEVEL_1
  6
CONTINUOUS
 62
       163
100
AcDbLine
 10
19.4400277051
 20
-26.9000000221
 30
-68.8589739706
 11
18.6900277051
 21
-27.6500000221
 31
-68.8589739706
  0
LINE
  5
7C
100
AcDbEntity
  8
CK_LEVEL_1
  6
CONTINUOUS
 62
       163
100
AcDbLine
 10
19.4400277051
 20
-23.5000000221
 30
-72.2589739706
 11
18.6900277051
 21
-23.5000000221
 31
-73.0089739706
  0
LINE
  5
7D
100
AcDbEntity
  8
CK_LEVEL_1
  6
CONTINUOUS
 62
       163
100
AcDbLine
 10
19.4400277051
 20
-20.1000000221
 30
-68.8589739706
 11
18.6900277051
 21
-19.3500000221
 31
-68.8589739706
  0
LINE
  5
7E
100
AcDbEntity
  8
CK_LEVEL_1
  6
CONTINUOUS
 62
       163
100
AcDbLine
 10
19.4400277051
 20
-23.5000000221
 30
-65.4589739706
 11
18.6900277051
 21
-23.5000000221
 31
-64.7089739706
  0
LINE
  5
7F
100
AcDbEntity
  8
CK_LEVEL_1
  6
CONTINUOUS
 62
       163
100
AcDbLine
 10
26.1900277051
 20
-26.9000000221
 30
-68.8589739706
 11
19.4400277051
 21
-26.9000000221
 31
-68.8589739706
  0
LINE
  5
80
100
AcDbEntity
  8
CK_LEVEL_1
  6
CONTINUOUS
 62
       163
100
AcDbLine
 10
26.1900277051
 20
-23.5000000221
 30
-72.2589739706
 11
19.4400277051
 21
-23.5000000221
 31
-72.2589739706
  0
LINE
  5
81
100
AcDbEntity
  8
CK_LEVEL_1
  6
CONTINUOUS
 62
       163
100
AcDbLine
 10
26.1900277051
 20
-20.1000000221
 30
-68.8589739706
 11
19.4400277051
 21
-20.1000000221
 31
-68.8589739706
  0
LINE
  5
82
100
AcDbEntity
  8
CK_LEVEL_1
  6
CONTINUOUS
 62
       163
100
AcDbLine
 10
26.1900277051
 20
-23.5000000221
 30
-65.4589739706
 11
19.4400277051
 21
-23.5000000221
 31
-65.4589739706
  0
LINE
  5
83
100
AcDbEntity
  8
CK_LEVEL_1
  6
CONTINUOUS
 62
       163
100
AcDbLine
 10
28.1530186204
 20
-23.5000000221
 30
-68.8589739706
 11
26.1900277051
 21
-26.9000000221
 31
-68.8589739706
  0
LINE
  5
84
100
AcDbEntity
  8
CK_LEVEL_1
  6
CONTINUOUS
 62
       163
100
AcDbLine
 10
28.1530186204
 20
-23.5000000221
 30
-68.8589739706
 11
26.1900277051
 21
-23.5000000221
 31
-72.2589739706
  0
LINE
  5
85
100
AcDbEntity
  8
CK_LEVEL_1
  6
CONTINUOUS
 62
       163
100
AcDbLine
 10
28.1530186204
 20
-23.5000000221
 30
-68.8589739706
 11
26.1900277051
 21
-20.1000000221
 31
-68.8589739706
  0
LINE
  5
86
100
AcDbEntity
  8
CK_LEVEL_1
  6
CONTINUOUS
 62
       163
100
AcDbLine
 10
28.1530186204
 20
-23.5000000221
 30
-68.8589739706
 11
26.1900277051
 21
-23.5000000221
 31
-65.4589739706
  0
CIRCLE
  5
87
100
AcDbEntity
  8
CK_LEVEL_1
  6
CONTINUOUS
 62
       163
100
AcDbCircle
 10
-23.5000000221
 20
-68.8589739706
 30
29.6900277051
 40
16.0
210
1.0
220
0.0
230
0.0
  0
CIRCLE
  5
88
100
AcDbEntity
  8
CK_LEVEL_1
  6
CONTINUOUS
 62
       163
100
AcDbCircle
 10
23.5000000221
 20
-68.8589739706
 30
-29.1900277051
 40
16.5
210
-1.0
220
0.0
230
0.0
  0
CIRCLE
  5
89
100
AcDbEntity
  8
CK_LEVEL_1
  6
CONTINUOUS
 62
       163
100
AcDbCircle
 10
-23.5000000221
 20
-68.8589739706
 30
-25.3099722949
 40
16.5
210
1.0
220
0.0
230
0.0
  0
CIRCLE
  5
8A
100
AcDbEntity
  8
CK_LEVEL_1
  6
CONTINUOUS
 62
       163
100
AcDbCircle
 10
-23.5000000221
 20
-68.8589739706
 30
-25.3099722949
 40
15.75
210
1.0
220
0.0
230
0.0
  0
CIRCLE
  5
8B
100
AcDbEntity
  8
CK_LEVEL_1
  6
CONTINUOUS
 62
       163
100
AcDbCircle
 10
-23.5000000221
 20
-68.8589739706
 30
-20.6449087854
 40
14.5
210
1.0
220
0.0
230
0.0
  0
CIRCLE
  5
8C
100
AcDbEntity
  8
CK_LEVEL_1
  6
CONTINUOUS
 62
       163
100
AcDbCircle
 10
-23.5000000221
 20
-68.8589739706
 30
25.6900277051
 40
14.5
210
1.0
220
0.0
230
0.0
  0
CIRCLE
  5
8D
100
AcDbEntity
  8
CK_LEVEL_1
  6
CONTINUOUS
 62
       163
100
AcDbCircle
 10
-23.5000000221
 20
-68.8589739706
 30
26.6900277051
 40
13.5
210
1.0
220
0.0
230
0.0
  0
CIRCLE
  5
8E
100
AcDbEntity
  8
CK_LEVEL_1
  6
CONTINUOUS
 62
       163
100
AcDbCircle
 10
-23.5000000221
 20
-68.8589739706
 30
26.6900277051
 40
8.0
210
1.0
220
0.0
230
0.0
  0
CIRCLE
  5
8F
100
AcDbEntity
  8
CK_LEVEL_1
  6
CONTINUOUS
 62
       163
100
AcDbCircle
 10
-23.5000000221
 20
-68.8589739706
 30
25.6900277051
 40
7.0
210
1.0
220
0.0
230
0.0
  0
CIRCLE
  5
90
100
AcDbEntity
  8
CK_LEVEL_1
  6
CONTINUOUS
 62
       163
100
AcDbCircle
 10
-23.5000000221
 20
-68.8589739706
 30
16.6900277051
 40
7.0
210
1.0
220
0.0
230
0.0
  0
CIRCLE
  5
91
100
AcDbEntity
  8
CK_LEVEL_1
  6
CONTINUOUS
 62
       163
100
AcDbCircle
 10
-23.5000000221
 20
-68.8589739706
 30
16.6900277051
 40
4.45
210
1.0
220
0.0
230
0.0
  0
CIRCLE
  5
92
100
AcDbEntity
  8
CK_LEVEL_1
  6
CONTINUOUS
 62
       163
100
AcDbCircle
 10
-23.5000000221
 20
-68.8589739706
 30
16.9900277051
 40
4.15
210
1.0
220
0.0
230
0.0
  0
CIRCLE
  5
93
100
AcDbEntity
  8
CK_LEVEL_1
  6
CONTINUOUS
 62
       163
100
AcDbCircle
 10
-23.5000000221
 20
-68.8589739706
 30
18.6900277051
 40
4.15
210
1.0
220
0.0
230
0.0
  0
CIRCLE
  5
94
100
AcDbEntity
  8
CK_LEVEL_1
  6
CONTINUOUS
 62
       163
100
AcDbCircle
 10
-23.5000000221
 20
-68.8589739706
 30
19.4400277051
 40
3.4
210
1.0
220
0.0
230
0.0
  0
ENDBLK
  5
95
100
AcDbEntity
  8
0
  6
CONTINUOUS
100
AcDbBlockEnd
  0
BLOCK
  5
99
100
AcDbEntity
  8
0
100
AcDbBlockBegin
  2
CKCOLL2868
 70
        64
 10
0.0
 20
0.0
 30
0.0
  3
CKCOLL2868
  1

  0
LINE
  5
9A
100
AcDbEntity
  8
CK_LEVEL_1
  6
CONTINUOUS
 62
         3
100
AcDbLine
 10
-4.7586495267
 20
176.5113131245
 30
-50.0
 11
-4.7586495267
 21
176.5113131245
 31
-52.8
  0
CIRCLE
  5
9B
100
AcDbEntity
  8
CK_LEVEL_1
  6
CONTINUOUS
 62
         3
100
AcDbCircle
 10
-2.5086495267
 20
176.5113131245
 30
-50.0
 40
2.25
  0
CIRCLE
  5
9C
100
AcDbEntity
  8
CK_LEVEL_1
  6
CONTINUOUS
 62
         3
100
AcDbCircle
 10
2.5086495267
 20
176.5113131245
 30
49.8
 40
2.05
210
0.0
220
0.0
230
-1.0
  0
CIRCLE
  5
9D
100
AcDbEntity
  8
CK_LEVEL_1
  6
CONTINUOUS
 62
         3
100
AcDbCircle
 10
-2.5086495267
 20
176.5113131245
 30
-52.8
 40
2.25
  0
ARC
  5
9E
100
AcDbEntity
  8
CK_LEVEL_1
  6
CONTINUOUS
 62
         3
100
AcDbCircle
 10
-174.4613131245
 20
-50.0
 30
2.5086495267
 40
0.2
210
-1.0
220
0.0
230
0.0
100
AcDbArc
 50
0.0
 51
90.0
  0
ARC
  5
9F
100
AcDbEntity
  8
CK_LEVEL_1
  6
CONTINUOUS
 62
         3
100
AcDbCircle
 10
-0.4586495267
 20
-50.0
 30
-176.5113131245
 40
0.2
210
0.0
220
-1.0
230
0.0
100
AcDbArc
 50
0.0
 51
90.0
  0
ARC
  5
A0
100
AcDbEntity
  8
CK_LEVEL_1
  6
CONTINUOUS
 62
         3
100
AcDbCircle
 10
178.5613131245
 20
-50.0
 30
-2.5086495267
 40
0.2
210
1.0
220
0.0
230
0.0
100
AcDbArc
 50
0.0
 51
90.0
  0
ARC
  5
A1
100
AcDbEntity
  8
CK_LEVEL_1
  6
CONTINUOUS
 62
         3
100
AcDbCircle
 10
4.5586495267
 20
-50.0
 30
176.5113131245
 40
0.2
210
0.0
220
1.0
230
0.0
100
AcDbArc
 50
0.0
 51
90.0
  0
CIRCLE
  5
A2
100
AcDbEntity
  8
CK_LEVEL_1
  6
CONTINUOUS
 62
         3
100
AcDbCircle
 10
-2.5086495267
 20
176.5113131245
 30
-49.8585786438
 40
2.1914213562
  0
LINE
  5
A3
100
AcDbEntity
  8
CK_LEVEL_1
  6
CONTINUOUS
 62
         3
100
AcDbLine
 10
-2.5086495267
 20
178.7613131245
 30
-50.0
 11
-2.5086495267
 21
178.7613131245
 31
-52.8
  0
LINE
  5
A4
100
AcDbEntity
  8
CK_LEVEL_1
  6
CONTINUOUS
 62
         3
100
AcDbLine
 10
-0.2586495267
 20
176.5113131245
 30
-50.0
 11
-0.2586495267
 21
176.5113131245
 31
-52.8
  0
LINE
  5
A5
100
AcDbEntity
  8
CK_LEVEL_1
  6
CONTINUOUS
 62
         3
100
AcDbLine
 10
-2.5086495267
 20
174.2613131245
 30
-50.0
 11
-2.5086495267
 21
174.2613131245
 31
-52.8
  0
ENDBLK
  5
A6
100
AcDbEntity
  8
0
  6
CONTINUOUS
100
AcDbBlockEnd
  0
BLOCK
  5
AA
100
AcDbEntity
  8
0
100
AcDbBlockBegin
  2
CKCOLL2823
 70
        64
 10
0.0
 20
0.0
 30
0.0
  3
CKCOLL2823
  1

  0
LINE
  5
AB
100
AcDbEntity
  8
CK_LEVEL_1
  6
CONTINUOUS
 62
         1
100
AcDbLine
 10
-49.8099722949
 20
206.249999978
 30
-68.8589739706
 11
-47.3099722949
 21
206.249999978
 31
-68.8589739706
  0
CIRCLE
  5
AC
100
AcDbEntity
  8
CK_LEVEL_1
  6
CONTINUOUS
 62
         1
100
AcDbCircle
 10
176.499999978
 20
-68.8589739706
 30
-49.8099722949
 40
26.5
210
1.0
220
0.0
230
0.0
  0
CIRCLE
  5
AD
100
AcDbEntity
  8
CK_LEVEL_1
  6
CONTINUOUS
 62
         1
100
AcDbCircle
 10
176.499999978
 20
-68.8589739706
 30
-49.8099722949
 40
29.75
210
1.0
220
0.0
230
0.0
  0
CIRCLE
  5
AE
100
AcDbEntity
  8
CK_LEVEL_1
  6
CONTINUOUS
 62
         1
100
AcDbCircle
 10
-176.499999978
 20
-68.8589739706
 30
47.0099722949
 40
15.0
210
-1.0
220
0.0
230
0.0
  0
CIRCLE
  5
AF
100
AcDbEntity
  8
CK_LEVEL_1
  6
CONTINUOUS
 62
         1
100
AcDbCircle
 10
176.499999978
 20
-68.8589739706
 30
-48.3099722949
 40
15.0
210
1.0
220
0.0
230
0.0
  0
CIRCLE
  5
B0
100
AcDbEntity
  8
CK_LEVEL_1
  6
CONTINUOUS
 62
         1
100
AcDbCircle
 10
176.499999978
 20
-68.8589739706
 30
-47.0099722949
 40
29.45
210
1.0
220
0.0
230
0.0
  0
CIRCLE
  5
B1
100
AcDbEntity
  8
CK_LEVEL_1
  6
CONTINUOUS
 62
         1
100
AcDbCircle
 10
176.499999978
 20
-68.8589739706
 30
-47.3099722949
 40
29.75
210
1.0
220
0.0
230
0.0
  0
CIRCLE
  5
B2
100
AcDbEntity
  8
CK_LEVEL_1
  6
CONTINUOUS
 62
         1
100
AcDbCircle
 10
176.499999978
 20
-68.8589739706
 30
-48.3099722949
 40
26.5
210
1.0
220
0.0
230
0.0
  0
LINE
  5
B3
100
AcDbEntity
  8
CK_LEVEL_1
  6
CONTINUOUS
 62
         1
100
AcDbLine
 10
-47.0099722949
 20
191.499999978
 30
-68.8589739706
 11
-48.3099722949
 21
191.499999978
 31
-68.8589739706
  0
LINE
  5
B4
100
AcDbEntity
  8
CK_LEVEL_1
  6
CONTINUOUS
 62
         1
100
AcDbLine
 10
-47.0099722949
 20
176.499999978
 30
-83.8589739706
 11
-48.3099722949
 21
176.499999978
 31
-83.8589739706
  0
LINE
  5
B5
100
AcDbEntity
  8
CK_LEVEL_1
  6
CONTINUOUS
 62
         1
100
AcDbLine
 10
-47.0099722949
 20
161.499999978
 30
-68.8589739706
 11
-48.3099722949
 21
161.499999978
 31
-68.8589739706
  0
LINE
  5
B6
100
AcDbEntity
  8
CK_LEVEL_1
  6
CONTINUOUS
 62
         1
100
AcDbLine
 10
-47.0099722949
 20
176.499999978
 30
-53.8589739706
 11
-48.3099722949
 21
176.499999978
 31
-53.8589739706
  0
ARC
  5
B7
100
AcDbEntity
  8
CK_LEVEL_1
  6
CONTINUOUS
 62
         1
100
AcDbCircle
 10
-47.3099722949
 20
-98.3089739706
 30
-176.499999978
 40
0.3
210
0.0
220
-1.0
230
0.0
100
AcDbArc
 50
270.0
 51
360.0
  0
ARC
  5
B8
100
AcDbEntity
  8
CK_LEVEL_1
  6
CONTINUOUS
 62
         1
100
AcDbCircle
 10
47.3099722949
 20
205.949999978
 30
68.8589739706
 40
0.3
210
0.0
220
0.0
230
-1.0
100
AcDbArc
 50
90.0
 51
180.0
  0
ARC
  5
B9
100
AcDbEntity
  8
CK_LEVEL_1
  6
CONTINUOUS
 62
         1
100
AcDbCircle
 10
47.3099722949
 20
-39.4089739706
 30
176.499999978
 40
0.3
210
0.0
220
1.0
230
0.0
100
AcDbArc
 50
90.0
 51
180.0
  0
ARC
  5
BA
100
AcDbEntity
  8
CK_LEVEL_1
  6
CONTINUOUS
 62
         1
100
AcDbCircle
 10
-47.3099722949
 20
147.049999978
 30
-68.8589739706
 40
0.3
100
AcDbArc
 50
270.0
 51
360.0
  0
CIRCLE
  5
BB
100
AcDbEntity
  8
CK_LEVEL_1
  6
CONTINUOUS
 62
         1
100
AcDbCircle
 10
176.499999978
 20
-68.8589739706
 30
-47.0978402605
 40
29.6621320344
210
1.0
220
0.0
230
0.0
  0
LINE
  5
BC
100
AcDbEntity
  8
CK_LEVEL_1
  6
CONTINUOUS
 62
         1
100
AcDbLine
 10
-49.8099722949
 20
176.499999978
 30
-42.3589739706
 11
-48.3099722949
 21
176.499999978
 31
-42.3589739706
  0
LINE
  5
BD
100
AcDbEntity
  8
CK_LEVEL_1
  6
CONTINUOUS
 62
         1
100
AcDbLine
 10
-49.8099722949
 20
149.999999978
 30
-68.8589739706
 11
-48.3099722949
 21
149.999999978
 31
-68.8589739706
  0
LINE
  5
BE
100
AcDbEntity
  8
CK_LEVEL_1
  6
CONTINUOUS
 62
         1
100
AcDbLine
 10
-49.8099722949
 20
176.499999978
 30
-95.3589739706
 11
-48.3099722949
 21
176.499999978
 31
-95.3589739706
  0
LINE
  5
BF
100
AcDbEntity
  8
CK_LEVEL_1
  6
CONTINUOUS
 62
         1
100
AcDbLine
 10
-49.8099722949
 20
202.999999978
 30
-68.8589739706
 11
-48.3099722949
 21
202.999999978
 31
-68.8589739706
  0
LINE
  5
C0
100
AcDbEntity
  8
CK_LEVEL_1
  6
CONTINUOUS
 62
         1
100
AcDbLine
 10
-49.8099722949
 20
176.499999978
 30
-39.1089739706
 11
-47.3099722949
 21
176.499999978
 31
-39.1089739706
  0
LINE
  5
C1
100
AcDbEntity
  8
CK_LEVEL_1
  6
CONTINUOUS
 62
         1
100
AcDbLine
 10
-49.8099722949
 20
146.749999978
 30
-68.8589739706
 11
-47.3099722949
 21
146.749999978
 31
-68.8589739706
  0
LINE
  5
C2
100
AcDbEntity
  8
CK_LEVEL_1
  6
CONTINUOUS
 62
         1
100
AcDbLine
 10
-49.8099722949
 20
176.499999978
 30
-98.6089739706
 11
-47.3099722949
 21
176.499999978
 31
-98.6089739706
  0
ENDBLK
  5
C3
100
AcDbEntity
  8
0
  6
CONTINUOUS
100
AcDbBlockEnd
  0
BLOCK
  5
C7
100
AcDbEntity
  8
0
100
AcDbBlockBegin
  2
CKCOLL2079
 70
        64
 10
0.0
 20
0.0
 30
0.0
  3
CKCOLL2079
  1

  0
CIRCLE
  5
C8
100
AcDbEntity
  8
CK_LEVEL_1
  6
CONTINUOUS
 62
       163
100
AcDbCircle
 10
-176.499999978
 20
-68.8589739706
 30
-26.1900277051
 40
3.4
210
-1.0
220
0.0
230
0.0
  0
ARC
  5
C9
100
AcDbEntity
  8
CK_LEVEL_1
  6
CONTINUOUS
 62
       163
100
AcDbCircle
 10
29.1900277051
 20
192.499999978
 30
-68.8589739706
 40
0.5
100
AcDbArc
 50
0.0
 51
90.0
  0
ARC
  5
CA
100
AcDbEntity
  8
CK_LEVEL_1
  6
CONTINUOUS
 62
       163
100
AcDbCircle
 10
-29.1900277051
 20
-84.8589739706
 30
176.499999978
 40
0.5
210
0.0
220
1.0
230
0.0
100
AcDbArc
 50
180.0
 51
270.0
  0
ARC
  5
CB
100
AcDbEntity
  8
CK_LEVEL_1
  6
CONTINUOUS
 62
       163
100
AcDbCircle
 10
-29.1900277051
 20
160.499999978
 30
68.8589739706
 40
0.5
210
0.0
220
0.0
230
-1.0
100
AcDbArc
 50
180.0
 51
270.0
  0
ARC
  5
CC
100
AcDbEntity
  8
CK_LEVEL_1
  6
CONTINUOUS
 62
       163
100
AcDbCircle
 10
29.1900277051
 20
-52.8589739706
 30
-176.499999978
 40
0.5
210
0.0
220
-1.0
230
0.0
100
AcDbArc
 50
0.0
 51
90.0
  0
CIRCLE
  5
CD
100
AcDbEntity
  8
CK_LEVEL_1
  6
CONTINUOUS
 62
       163
100
AcDbCircle
 10
-176.499999978
 20
-68.8589739706
 30
-29.5435810957
 40
16.3535533906
210
-1.0
220
0.0
230
0.0
  0
LINE
  5
CE
100
AcDbEntity
  8
CK_LEVEL_1
  6
CONTINUOUS
 62
       163
100
AcDbLine
 10
29.1900277051
 20
192.999999978
 30
-68.8589739706
 11
-25.3099722949
 21
192.999999978
 31
-68.8589739706
  0
LINE
  5
CF
100
AcDbEntity
  8
CK_LEVEL_1
  6
CONTINUOUS
 62
       163
100
AcDbLine
 10
29.1900277051
 20
176.499999978
 30
-85.3589739706
 11
-25.3099722949
 21
176.499999978
 31
-85.3589739706
  0
LINE
  5
D0
100
AcDbEntity
  8
CK_LEVEL_1
  6
CONTINUOUS
 62
       163
100
AcDbLine
 10
29.1900277051
 20
159.999999978
 30
-68.8589739706
 11
-25.3099722949
 21
159.999999978
 31
-68.8589739706
  0
LINE
  5
D1
100
AcDbEntity
  8
CK_LEVEL_1
  6
CONTINUOUS
 62
       163
100
AcDbLine
 10
29.1900277051
 20
176.499999978
 30
-52.3589739706
 11
-25.3099722949
 21
176.499999978
 31
-52.3589739706
  0
LINE
  5
D2
100
AcDbEntity
  8
CK_LEVEL_1
  6
CONTINUOUS
 62
       163
100
AcDbLine
 10
-20.6449087854
 20
190.999999978
 30
-68.8589739706
 11
-25.3099722949
 21
192.249999978
 31
-68.8589739706
  0
LINE
  5
D3
100
AcDbEntity
  8
CK_LEVEL_1
  6
CONTINUOUS
 62
       163
100
AcDbLine
 10
-20.6449087854
 20
176.499999978
 30
-83.3589739706
 11
-25.3099722949
 21
176.499999978
 31
-84.6089739706
  0
LINE
  5
D4
100
AcDbEntity
  8
CK_LEVEL_1
  6
CONTINUOUS
 62
       163
100
AcDbLine
 10
-20.6449087854
 20
161.999999978
 30
-68.8589739706
 11
-25.3099722949
 21
160.749999978
 31
-68.8589739706
  0
LINE
  5
D5
100
AcDbEntity
  8
CK_LEVEL_1
  6
CONTINUOUS
 62
       163
100
AcDbLine
 10
-20.6449087854
 20
176.499999978
 30
-54.3589739706
 11
-25.3099722949
 21
176.499999978
 31
-53.1089739706
  0
LINE
  5
D6
100
AcDbEntity
  8
CK_LEVEL_1
  6
CONTINUOUS
 62
       163
100
AcDbLine
 10
25.6900277051
 20
190.999999978
 30
-68.8589739706
 11
-20.6449087854
 21
190.999999978
 31
-68.8589739706
  0
LINE
  5
D7
100
AcDbEntity
  8
CK_LEVEL_1
  6
CONTINUOUS
 62
       163
100
AcDbLine
 10
25.6900277051
 20
176.499999978
 30
-83.3589739706
 11
-20.6449087854
 21
176.499999978
 31
-83.3589739706
  0
LINE
  5
D8
100
AcDbEntity
  8
CK_LEVEL_1
  6
CONTINUOUS
 62
       163
100
AcDbLine
 10
25.6900277051
 20
161.999999978
 30
-68.8589739706
 11
-20.6449087854
 21
161.999999978
 31
-68.8589739706
  0
LINE
  5
D9
100
AcDbEntity
  8
CK_LEVEL_1
  6
CONTINUOUS
 62
       163
100
AcDbLine
 10
25.6900277051
 20
176.499999978
 30
-54.3589739706
 11
-20.6449087854
 21
176.499999978
 31
-54.3589739706
  0
ARC
  5
DA
100
AcDbEntity
  8
CK_LEVEL_1
  6
CONTINUOUS
 62
       163
100
AcDbCircle
 10
-25.6900277051
 20
-82.3589739706
 30
176.499999978
 40
1.0
210
0.0
220
1.0
230
0.0
100
AcDbArc
 50
180.0
 51
270.0
  0
ARC
  5
DB
100
AcDbEntity
  8
CK_LEVEL_1
  6
CONTINUOUS
 62
       163
100
AcDbCircle
 10
-25.6900277051
 20
162.999999978
 30
68.8589739706
 40
1.0
210
0.0
220
0.0
230
-1.0
100
AcDbArc
 50
180.0
 51
270.0
  0
ARC
  5
DC
100
AcDbEntity
  8
CK_LEVEL_1
  6
CONTINUOUS
 62
       163
100
AcDbCircle
 10
25.6900277051
 20
-55.3589739706
 30
-176.499999978
 40
1.0
210
0.0
220
-1.0
230
0.0
100
AcDbArc
 50
0.0
 51
90.0
  0
ARC
  5
DD
100
AcDbEntity
  8
CK_LEVEL_1
  6
CONTINUOUS
 62
       163
100
AcDbCircle
 10
25.6900277051
 20
189.999999978
 30
-68.8589739706
 40
1.0
100
AcDbArc
 50
0.0
 51
90.0
  0
CIRCLE
  5
DE
100
AcDbEntity
  8
CK_LEVEL_1
  6
CONTINUOUS
 62
       163
100
AcDbCircle
 10
-176.499999978
 20
-68.8589739706
 30
-26.3971344863
 40
14.2071067812
210
-1.0
220
0.0
230
0.0
  0
ARC
  5
DF
100
AcDbEntity
  8
CK_LEVEL_1
  6
CONTINUOUS
 62
       163
100
AcDbCircle
 10
-25.6900277051
 20
-76.8589739706
 30
176.499999978
 40
1.0
210
0.0
220
1.0
230
0.0
100
AcDbArc
 50
90.0
 51
180.0
  0
ARC
  5
E0
100
AcDbEntity
  8
CK_LEVEL_1
  6
CONTINUOUS
 62
       163
100
AcDbCircle
 10
-25.6900277051
 20
168.499999978
 30
68.8589739706
 40
1.0
210
0.0
220
0.0
230
-1.0
100
AcDbArc
 50
90.0
 51
180.0
  0
ARC
  5
E1
100
AcDbEntity
  8
CK_LEVEL_1
  6
CONTINUOUS
 62
       163
100
AcDbCircle
 10
25.6900277051
 20
-60.8589739706
 30
-176.499999978
 40
1.0
210
0.0
220
-1.0
230
0.0
100
AcDbArc
 50
270.0
 51
360.0
  0
ARC
  5
E2
100
AcDbEntity
  8
CK_LEVEL_1
  6
CONTINUOUS
 62
       163
100
AcDbCircle
 10
25.6900277051
 20
184.499999978
 30
-68.8589739706
 40
1.0
100
AcDbArc
 50
270.0
 51
360.0
  0
CIRCLE
  5
E3
100
AcDbEntity
  8
CK_LEVEL_1
  6
CONTINUOUS
 62
       163
100
AcDbCircle
 10
-176.499999978
 20
-68.8589739706
 30
-26.3971344863
 40
7.2928932188
210
-1.0
220
0.0
230
0.0
  0
LINE
  5
E4
100
AcDbEntity
  8
CK_LEVEL_1
  6
CONTINUOUS
 62
       163
100
AcDbLine
 10
25.6900277051
 20
183.499999978
 30
-68.8589739706
 11
16.6900277051
 21
183.499999978
 31
-68.8589739706
  0
LINE
  5
E5
100
AcDbEntity
  8
CK_LEVEL_1
  6
CONTINUOUS
 62
       163
100
AcDbLine
 10
25.6900277051
 20
176.499999978
 30
-75.8589739706
 11
16.6900277051
 21
176.499999978
 31
-75.8589739706
  0
LINE
  5
E6
100
AcDbEntity
  8
CK_LEVEL_1
  6
CONTINUOUS
 62
       163
100
AcDbLine
 10
25.6900277051
 20
169.499999978
 30
-68.8589739706
 11
16.6900277051
 21
169.499999978
 31
-68.8589739706
  0
LINE
  5
E7
100
AcDbEntity
  8
CK_LEVEL_1
  6
CONTINUOUS
 62
       163
100
AcDbLine
 10
25.6900277051
 20
176.499999978
 30
-61.8589739706
 11
16.6900277051
 21
176.499999978
 31
-61.8589739706
  0
ARC
  5
E8
100
AcDbEntity
  8
CK_LEVEL_1
  6
CONTINUOUS
 62
       163
100
AcDbCircle
 10
-16.9900277051
 20
-73.3089739706
 30
176.499999978
 40
0.3
210
0.0
220
1.0
230
0.0
100
AcDbArc
 50
0.0
 51
90.0
  0
ARC
  5
E9
100
AcDbEntity
  8
CK_LEVEL_1
  6
CONTINUOUS
 62
       163
100
AcDbCircle
 10
-16.9900277051
 20
172.049999978
 30
68.8589739706
 40
0.3
210
0.0
220
0.0
230
-1.0
100
AcDbArc
 50
0.0
 51
90.0
  0
ARC
  5
EA
100
AcDbEntity
  8
CK_LEVEL_1
  6
CONTINUOUS
 62
       163
100
AcDbCircle
 10
16.9900277051
 20
-64.4089739706
 30
-176.499999978
 40
0.3
210
0.0
220
-1.0
230
0.0
100
AcDbArc
 50
180.0
 51
270.0
  0
ARC
  5
EB
100
AcDbEntity
  8
CK_LEVEL_1
  6
CONTINUOUS
 62
       163
100
AcDbCircle
 10
16.9900277051
 20
180.949999978
 30
-68.8589739706
 40
0.3
100
AcDbArc
 50
180.0
 51
270.0
  0
CIRCLE
  5
EC
100
AcDbEntity
  8
CK_LEVEL_1
  6
CONTINUOUS
 62
       163
100
AcDbCircle
 10
-176.499999978
 20
-68.8589739706
 30
-16.7778956708
 40
4.2378679656
210
-1.0
220
0.0
230
0.0
  0
LINE
  5
ED
100
AcDbEntity
  8
CK_LEVEL_1
  6
CONTINUOUS
 62
       163
100
AcDbLine
 10
18.6900277051
 20
180.649999978
 30
-68.8589739706
 11
16.9900277051
 21
180.649999978
 31
-68.8589739706
  0
LINE
  5
EE
100
AcDbEntity
  8
CK_LEVEL_1
  6
CONTINUOUS
 62
       163
100
AcDbLine
 10
18.6900277051
 20
176.499999978
 30
-73.0089739706
 11
16.9900277051
 21
176.499999978
 31
-73.0089739706
  0
LINE
  5
EF
100
AcDbEntity
  8
CK_LEVEL_1
  6
CONTINUOUS
 62
       163
100
AcDbLine
 10
18.6900277051
 20
172.349999978
 30
-68.8589739706
 11
16.9900277051
 21
172.349999978
 31
-68.8589739706
  0
LINE
  5
F0
100
AcDbEntity
  8
CK_LEVEL_1
  6
CONTINUOUS
 62
       163
100
AcDbLine
 10
18.6900277051
 20
176.499999978
 30
-64.7089739706
 11
16.9900277051
 21
176.499999978
 31
-64.7089739706
  0
LINE
  5
F1
100
AcDbEntity
  8
CK_LEVEL_1
  6
CONTINUOUS
 62
       163
100
AcDbLine
 10
19.4400277051
 20
179.899999978
 30
-68.8589739706
 11
18.6900277051
 21
180.649999978
 31
-68.8589739706
  0
LINE
  5
F2
100
AcDbEntity
  8
CK_LEVEL_1
  6
CONTINUOUS
 62
       163
100
AcDbLine
 10
19.4400277051
 20
176.499999978
 30
-72.2589739706
 11
18.6900277051
 21
176.499999978
 31
-73.0089739706
  0
LINE
  5
F3
100
AcDbEntity
  8
CK_LEVEL_1
  6
CONTINUOUS
 62
       163
100
AcDbLine
 10
19.4400277051
 20
173.099999978
 30
-68.8589739706
 11
18.6900277051
 21
172.349999978
 31
-68.8589739706
  0
LINE
  5
F4
100
AcDbEntity
  8
CK_LEVEL_1
  6
CONTINUOUS
 62
       163
100
AcDbLine
 10
19.4400277051
 20
176.499999978
 30
-65.4589739706
 11
18.6900277051
 21
176.499999978
 31
-64.7089739706
  0
LINE
  5
F5
100
AcDbEntity
  8
CK_LEVEL_1
  6
CONTINUOUS
 62
       163
100
AcDbLine
 10
26.1900277051
 20
179.899999978
 30
-68.8589739706
 11
19.4400277051
 21
179.899999978
 31
-68.8589739706
  0
LINE
  5
F6
100
AcDbEntity
  8
CK_LEVEL_1
  6
CONTINUOUS
 62
       163
100
AcDbLine
 10
26.1900277051
 20
176.499999978
 30
-72.2589739706
 11
19.4400277051
 21
176.499999978
 31
-72.2589739706
  0
LINE
  5
F7
100
AcDbEntity
  8
CK_LEVEL_1
  6
CONTINUOUS
 62
       163
100
AcDbLine
 10
26.1900277051
 20
173.099999978
 30
-68.8589739706
 11
19.4400277051
 21
173.099999978
 31
-68.8589739706
  0
LINE
  5
F8
100
AcDbEntity
  8
CK_LEVEL_1
  6
CONTINUOUS
 62
       163
100
AcDbLine
 10
26.1900277051
 20
176.499999978
 30
-65.4589739706
 11
19.4400277051
 21
176.499999978
 31
-65.4589739706
  0
LINE
  5
F9
100
AcDbEntity
  8
CK_LEVEL_1
  6
CONTINUOUS
 62
       163
100
AcDbLine
 10
28.1530186204
 20
176.499999978
 30
-68.8589739706
 11
26.1900277051
 21
179.899999978
 31
-68.8589739706
  0
LINE
  5
FA
100
AcDbEntity
  8
CK_LEVEL_1
  6
CONTINUOUS
 62
       163
100
AcDbLine
 10
28.1530186204
 20
176.499999978
 30
-68.8589739706
 11
26.1900277051
 21
176.499999978
 31
-72.2589739706
  0
LINE
  5
FB
100
AcDbEntity
  8
CK_LEVEL_1
  6
CONTINUOUS
 62
       163
100
AcDbLine
 10
28.1530186204
 20
176.499999978
 30
-68.8589739706
 11
26.1900277051
 21
173.099999978
 31
-68.8589739706
  0
LINE
  5
FC
100
AcDbEntity
  8
CK_LEVEL_1
  6
CONTINUOUS
 62
       163
100
AcDbLine
 10
28.1530186204
 20
176.499999978
 30
-68.8589739706
 11
26.1900277051
 21
176.499999978
 31
-65.4589739706
  0
CIRCLE
  5
FD
100
AcDbEntity
  8
CK_LEVEL_1
  6
CONTINUOUS
 62
       163
100
AcDbCircle
 10
-176.499999978
 20
-68.8589739706
 30
-29.6900277051
 40
16.0
210
-1.0
220
0.0
230
0.0
  0
CIRCLE
  5
FE
100
AcDbEntity
  8
CK_LEVEL_1
  6
CONTINUOUS
 62
       163
100
AcDbCircle
 10
176.499999978
 20
-68.8589739706
 30
29.1900277051
 40
16.5
210
1.0
220
0.0
230
0.0
  0
CIRCLE
  5
FF
100
AcDbEntity
  8
CK_LEVEL_1
  6
CONTINUOUS
 62
       163
100
AcDbCircle
 10
-176.499999978
 20
-68.8589739706
 30
25.3099722949
 40
16.5
210
-1.0
220
0.0
230
0.0
  0
CIRCLE
  5
100
100
AcDbEntity
  8
CK_LEVEL_1
  6
CONTINUOUS
 62
       163
100
AcDbCircle
 10
-176.499999978
 20
-68.8589739706
 30
25.3099722949
 40
15.75
210
-1.0
220
0.0
230
0.0
  0
CIRCLE
  5
101
100
AcDbEntity
  8
CK_LEVEL_1
  6
CONTINUOUS
 62
       163
100
AcDbCircle
 10
-176.499999978
 20
-68.8589739706
 30
20.6449087854
 40
14.5
210
-1.0
220
0.0
230
0.0
  0
CIRCLE
  5
102
100
AcDbEntity
  8
CK_LEVEL_1
  6
CONTINUOUS
 62
       163
100
AcDbCircle
 10
-176.499999978
 20
-68.8589739706
 30
-25.6900277051
 40
14.5
210
-1.0
220
0.0
230
0.0
  0
CIRCLE
  5
103
100
AcDbEntity
  8
CK_LEVEL_1
  6
CONTINUOUS
 62
       163
100
AcDbCircle
 10
-176.499999978
 20
-68.8589739706
 30
-26.6900277051
 40
13.5
210
-1.0
220
0.0
230
0.0
  0
CIRCLE
  5
104
100
AcDbEntity
  8
CK_LEVEL_1
  6
CONTINUOUS
 62
       163
100
AcDbCircle
 10
-176.499999978
 20
-68.8589739706
 30
-26.6900277051
 40
8.0
210
-1.0
220
0.0
230
0.0
  0
CIRCLE
  5
105
100
AcDbEntity
  8
CK_LEVEL_1
  6
CONTINUOUS
 62
       163
100
AcDbCircle
 10
-176.499999978
 20
-68.8589739706
 30
-25.6900277051
 40
7.0
210
-1.0
220
0.0
230
0.0
  0
CIRCLE
  5
106
100
AcDbEntity
  8
CK_LEVEL_1
  6
CONTINUOUS
 62
       163
100
AcDbCircle
 10
-176.499999978
 20
-68.8589739706
 30
-16.6900277051
 40
7.0
210
-1.0
220
0.0
230
0.0
  0
CIRCLE
  5
107
100
AcDbEntity
  8
CK_LEVEL_1
  6
CONTINUOUS
 62
       163
100
AcDbCircle
 10
-176.499999978
 20
-68.8589739706
 30
-16.6900277051
 40
4.45
210
-1.0
220
0.0
230
0.0
  0
CIRCLE
  5
108
100
AcDbEntity
  8
CK_LEVEL_1
  6
CONTINUOUS
 62
       163
100
AcDbCircle
 10
-176.499999978
 20
-68.8589739706
 30
-16.9900277051
 40
4.15
210
-1.0
220
0.0
230
0.0
  0
CIRCLE
  5
109
100
AcDbEntity
  8
CK_LEVEL_1
  6
CONTINUOUS
 62
       163
100
AcDbCircle
 10
-176.499999978
 20
-68.8589739706
 30
-18.6900277051
 40
4.15
210
-1.0
220
0.0
230
0.0
  0
CIRCLE
  5
10A
100
AcDbEntity
  8
CK_LEVEL_1
  6
CONTINUOUS
 62
       163
100
AcDbCircle
 10
-176.499999978
 20
-68.8589739706
 30
-19.4400277051
 40
3.4
210
-1.0
220
0.0
230
0.0
  0
ENDBLK
  5
10B
100
AcDbEntity
  8
0
  6
CONTINUOUS
100
AcDbBlockEnd
  0
BLOCK
  5
10F
100
AcDbEntity
  8
0
100
AcDbBlockBegin
  2
CKCOLL3241
 70
        64
 10
0.0
 20
0.0
 30
0.0
  3
CKCOLL3241
  1

  0
CIRCLE
  5
110
100
AcDbEntity
  8
CK_LEVEL_1
  6
CONTINUOUS
 62
         3
100
AcDbCircle
 10
-23.5000000221
 20
-68.8589739706
 30
-25.3099722949
 40
15.0
210
1.0
220
0.0
230
0.0
  0
LINE
  5
111
100
AcDbEntity
  8
CK_LEVEL_1
  6
CONTINUOUS
 62
         3
100
AcDbLine
 10
-25.3099722949
 20
-8.5000000221
 30
-68.8589739706
 11
-54.3099722949
 21
-8.5000000221
 31
-68.8589739706
  0
LINE
  5
112
100
AcDbEntity
  8
CK_LEVEL_1
  6
CONTINUOUS
 62
         3
100
AcDbLine
 10
-25.3099722949
 20
-23.5000000221
 30
-83.8589739706
 11
-54.3099722949
 21
-23.5000000221
 31
-83.8589739706
  0
LINE
  5
113
100
AcDbEntity
  8
CK_LEVEL_1
  6
CONTINUOUS
 62
         3
100
AcDbLine
 10
-25.3099722949
 20
-38.5000000221
 30
-68.8589739706
 11
-54.3099722949
 21
-38.5000000221
 31
-68.8589739706
  0
LINE
  5
114
100
AcDbEntity
  8
CK_LEVEL_1
  6
CONTINUOUS
 62
         3
100
AcDbLine
 10
-25.3099722949
 20
-23.5000000221
 30
-53.8589739706
 11
-54.3099722949
 21
-23.5000000221
 31
-53.8589739706
  0
CIRCLE
  5
115
100
AcDbEntity
  8
CK_LEVEL_1
  6
CONTINUOUS
 62
         3
100
AcDbCircle
 10
-23.5000000221
 20
-68.8589739706
 30
-54.3099722949
 40
15.0
210
1.0
220
0.0
230
0.0
  0
ENDBLK
  5
116
100
AcDbEntity
  8
0
  6
CONTINUOUS
100
AcDbBlockEnd
  0
BLOCK
  5
11A
100
AcDbEntity
  8
0
100
AcDbBlockBegin
  2
CKCOLL3248
 70
        64
 10
0.0
 20
0.0
 30
0.0
  3
CKCOLL3248
  1

  0
LINE
  5
11B
100
AcDbEntity
  8
CK_LEVEL_1
  6
CONTINUOUS
 62
         3
100
AcDbLine
 10
-25.3099722949
 20
191.499999978
 30
-68.8589739706
 11
-54.3099722949
 21
191.499999978
 31
-68.8589739706
  0
LINE
  5
11C
100
AcDbEntity
  8
CK_LEVEL_1
  6
CONTINUOUS
 62
         3
100
AcDbLine
 10
-25.3099722949
 20
176.499999978
 30
-83.8589739706
 11
-54.3099722949
 21
176.499999978
 31
-83.8589739706
  0
LINE
  5
11D
100
AcDbEntity
  8
CK_LEVEL_1
  6
CONTINUOUS
 62
         3
100
AcDbLine
 10
-25.3099722949
 20
161.499999978
 30
-68.8589739706
 11
-54.3099722949
 21
161.499999978
 31
-68.8589739706
  0
LINE
  5
11E
100
AcDbEntity
  8
CK_LEVEL_1
  6
CONTINUOUS
 62
         3
100
AcDbLine
 10
-25.3099722949
 20
176.499999978
 30
-53.8589739706
 11
-54.3099722949
 21
176.499999978
 31
-53.8589739706
  0
CIRCLE
  5
11F
100
AcDbEntity
  8
CK_LEVEL_1
  6
CONTINUOUS
 62
         3
100
AcDbCircle
 10
176.499999978
 20
-68.8589739706
 30
-54.3099722949
 40
15.0
210
1.0
220
0.0
230
0.0
  0
CIRCLE
  5
120
100
AcDbEntity
  8
CK_LEVEL_1
  6
CONTINUOUS
 62
         3
100
AcDbCircle
 10
176.499999978
 20
-68.8589739706
 30
-25.3099722949
 40
15.0
210
1.0
220
0.0
230
0.0
  0
ENDBLK
  5
121
100
AcDbEntity
  8
0
  6
CONTINUOUS
100
AcDbBlockEnd
  0
BLOCK
  5
127
100
AcDbEntity
  8
0
100
AcDbBlockBegin
  2
CKCOLL3311
 70
        64
 10
0.0
 20
0.0
 30
0.0
  3
CKCOLL3311
  1

  0
CIRCLE
  5
128
100
AcDbEntity
  8
CK_LEVEL_1
  6
CONTINUOUS
 62
         1
100
AcDbCircle
 10
76.499999978
 20
-68.8589739706
 30
-50.0978402605
 40
30.0
210
1.0
220
0.0
230
0.0
  0
ARC
  5
129
100
AcDbEntity
  8
CK_LEVEL_1
  6
CONTINUOUS
 62
         1
100
AcDbCircle
 10
-47.3978402605
 20
46.799999978
 30
-68.8589739706
 40
0.3
100
AcDbArc
 50
270.0
 51
360.0
  0
ARC
  5
12A
100
AcDbEntity
  8
CK_LEVEL_1
  6
CONTINUOUS
 62
         1
100
AcDbCircle
 10
-47.3978402605
 20
-98.5589739706
 30
-76.499999978
 40
0.3
210
0.0
220
-1.0
230
0.0
100
AcDbArc
 50
270.0
 51
360.0
  0
ARC
  5
12B
100
AcDbEntity
  8
CK_LEVEL_1
  6
CONTINUOUS
 62
         1
100
AcDbCircle
 10
47.3978402605
 20
106.199999978
 30
68.8589739706
 40
0.3
210
0.0
220
0.0
230
-1.0
100
AcDbArc
 50
90.0
 51
180.0
  0
ARC
  5
12C
100
AcDbEntity
  8
CK_LEVEL_1
  6
CONTINUOUS
 62
         1
100
AcDbCircle
 10
47.3978402605
 20
-39.1589739706
 30
76.499999978
 40
0.3
210
0.0
220
1.0
230
0.0
100
AcDbArc
 50
90.0
 51
180.0
  0
CIRCLE
  5
12D
100
AcDbEntity
  8
CK_LEVEL_1
  6
CONTINUOUS
 62
         1
100
AcDbCircle
 10
76.499999978
 20
-68.8589739706
 30
-47.1857082262
 40
29.9121320344
210
1.0
220
0.0
230
0.0
  0
LINE
  5
12E
100
AcDbEntity
  8
CK_LEVEL_1
  6
CONTINUOUS
 62
         1
100
AcDbLine
 10
-47.3978402605
 20
76.499999978
 30
-98.8589739706
 11
-50.0978402605
 21
76.499999978
 31
-98.8589739706
  0
LINE
  5
12F
100
AcDbEntity
  8
CK_LEVEL_1
  6
CONTINUOUS
 62
         1
100
AcDbLine
 10
-47.3978402605
 20
46.499999978
 30
-68.8589739706
 11
-50.0978402605
 21
46.499999978
 31
-68.8589739706
  0
LINE
  5
130
100
AcDbEntity
  8
CK_LEVEL_1
  6
CONTINUOUS
 62
         1
100
AcDbLine
 10
-47.3978402605
 20
76.499999978
 30
-38.8589739706
 11
-50.0978402605
 21
76.499999978
 31
-38.8589739706
  0
LINE
  5
131
100
AcDbEntity
  8
CK_LEVEL_1
  6
CONTINUOUS
 62
         1
100
AcDbLine
 10
-47.3978402605
 20
106.499999978
 30
-68.8589739706
 11
-50.0978402605
 21
106.499999978
 31
-68.8589739706
  0
LINE
  5
132
100
AcDbEntity
  8
CK_LEVEL_1
  6
CONTINUOUS
 62
         1
100
AcDbLine
 10
-50.0978402605
 20
63.999999978
 30
-65.8589739706
 11
-50.0978402605
 21
63.999999978
 31
-71.8589739706
  0
LINE
  5
133
100
AcDbEntity
  8
CK_LEVEL_1
  6
CONTINUOUS
 62
         1
100
AcDbLine
 10
-50.0978402605
 20
63.999999978
 30
-65.8589739706
 11
-49.5978402605
 21
63.999999978
 31
-65.8589739706
  0
LINE
  5
134
100
AcDbEntity
  8
CK_LEVEL_1
  6
CONTINUOUS
 62
         1
100
AcDbLine
 10
-49.5978402605
 20
63.999999978
 30
-71.8589739706
 11
-49.5978402605
 21
63.999999978
 31
-65.8589739706
  0
LINE
  5
135
100
AcDbEntity
  8
CK_LEVEL_1
  6
CONTINUOUS
 62
         1
100
AcDbLine
 10
-50.0978402605
 20
63.999999978
 30
-71.8589739706
 11
-49.5978402605
 21
63.999999978
 31
-71.8589739706
  0
LINE
  5
136
100
AcDbEntity
  8
CK_LEVEL_1
  6
CONTINUOUS
 62
         1
100
AcDbLine
 10
-50.0978402605
 20
63.999999978
 30
-71.8589739706
 11
-50.0978402605
 21
88.999999978
 31
-71.8589739706
  0
LINE
  5
137
100
AcDbEntity
  8
CK_LEVEL_1
  6
CONTINUOUS
 62
         1
100
AcDbLine
 10
-49.5978402605
 20
88.999999978
 30
-71.8589739706
 11
-49.5978402605
 21
63.999999978
 31
-71.8589739706
  0
LINE
  5
138
100
AcDbEntity
  8
CK_LEVEL_1
  6
CONTINUOUS
 62
         1
100
AcDbLine
 10
-50.0978402605
 20
88.999999978
 30
-71.8589739706
 11
-49.5978402605
 21
88.999999978
 31
-71.8589739706
  0
LINE
  5
139
100
AcDbEntity
  8
CK_LEVEL_1
  6
CONTINUOUS
 62
         1
100
AcDbLine
 10
-50.0978402605
 20
88.999999978
 30
-71.8589739706
 11
-50.0978402605
 21
88.999999978
 31
-65.8589739706
  0
LINE
  5
13A
100
AcDbEntity
  8
CK_LEVEL_1
  6
CONTINUOUS
 62
         1
100
AcDbLine
 10
-49.5978402605
 20
88.999999978
 30
-65.8589739706
 11
-49.5978402605
 21
88.999999978
 31
-71.8589739706
  0
LINE
  5
13B
100
AcDbEntity
  8
CK_LEVEL_1
  6
CONTINUOUS
 62
         1
100
AcDbLine
 10
-49.5978402605
 20
88.999999978
 30
-65.8589739706
 11
-50.0978402605
 21
88.999999978
 31
-65.8589739706
  0
LINE
  5
13C
100
AcDbEntity
  8
CK_LEVEL_1
  6
CONTINUOUS
 62
         1
100
AcDbLine
 10
-50.0978402605
 20
88.999999978
 30
-65.8589739706
 11
-50.0978402605
 21
63.999999978
 31
-65.8589739706
  0
LINE
  5
13D
100
AcDbEntity
  8
CK_LEVEL_1
  6
CONTINUOUS
 62
         1
100
AcDbLine
 10
-49.5978402605
 20
63.999999978
 30
-65.8589739706
 11
-49.5978402605
 21
88.999999978
 31
-65.8589739706
  0
CIRCLE
  5
13E
100
AcDbEntity
  8
CK_LEVEL_1
  6
CONTINUOUS
 62
         1
100
AcDbCircle
 10
76.499999978
 20
-68.8589739706
 30
-47.3978402605
 40
30.0
210
1.0
220
0.0
230
0.0
  0
CIRCLE
  5
13F
100
AcDbEntity
  8
CK_LEVEL_1
  6
CONTINUOUS
 62
         1
100
AcDbCircle
 10
-76.499999978
 20
-68.8589739706
 30
47.0978402605
 40
29.7
210
-1.0
220
0.0
230
0.0
  0
ENDBLK
  5
140
100
AcDbEntity
  8
0
  6
CONTINUOUS
100
AcDbBlockEnd
  0
BLOCK
  5
144
100
AcDbEntity
  8
0
100
AcDbBlockBegin
  2
CKCOLL3441
 70
        64
 10
0.0
 20
0.0
 30
0.0
  3
CKCOLL3441
  1

  0
LINE
  5
145
100
AcDbEntity
  8
CK_LEVEL_1
  6
CONTINUOUS
 62
         3
100
AcDbLine
 10
-52.0978402605
 20
88.999999978
 30
-65.8589739706
 11
129.9021597395
 21
88.999999978
 31
-65.8589739706
  0
ARC
  5
146
100
AcDbEntity
  8
CK_LEVEL_1
  6
CONTINUOUS
 62
         3
100
AcDbCircle
 10
-129.9021597395
 20
-118.8589739706
 30
63.999999978
 40
53.0
210
0.0
220
1.0
230
0.0
100
AcDbArc
 50
90.0
 51
180.0
  0
LINE
  5
147
100
AcDbEntity
  8
CK_LEVEL_1
  6
CONTINUOUS
 62
         3
100
AcDbLine
 10
182.9021597395
 20
88.999999978
 30
-118.8589739706
 11
182.9021597395
 21
63.999999978
 31
-118.8589739706
  0
ARC
  5
148
100
AcDbEntity
  8
CK_LEVEL_1
  6
CONTINUOUS
 62
         3
100
AcDbCircle
 10
-129.9021597395
 20
-118.8589739706
 30
88.999999978
 40
53.0
210
0.0
220
1.0
230
0.0
100
AcDbArc
 50
90.0
 51
180.0
  0
LINE
  5
149
100
AcDbEntity
  8
CK_LEVEL_1
  6
CONTINUOUS
 62
         3
100
AcDbLine
 10
129.9021597395
 20
88.999999978
 30
-65.8589739706
 11
129.9021597395
 21
63.999999978
 31
-65.8589739706
  0
LINE
  5
14A
100
AcDbEntity
  8
CK_LEVEL_1
  6
CONTINUOUS
 62
         3
100
AcDbLine
 10
182.9021597395
 20
63.999999978
 30
-118.8589739706
 11
176.9021597395
 21
63.999999978
 31
-118.8589739706
  0
LINE
  5
14B
100
AcDbEntity
  8
CK_LEVEL_1
  6
CONTINUOUS
 62
         3
100
AcDbLine
 10
176.9021597395
 20
88.999999978
 30
-118.8589739706
 11
176.9021597395
 21
63.999999978
 31
-118.8589739706
  0
LINE
  5
14C
100
AcDbEntity
  8
CK_LEVEL_1
  6
CONTINUOUS
 62
         3
100
AcDbLine
 10
182.9021597395
 20
88.999999978
 30
-118.8589739706
 11
176.9021597395
 21
88.999999978
 31
-118.8589739706
  0
ARC
  5
14D
100
AcDbEntity
  8
CK_LEVEL_1
  6
CONTINUOUS
 62
         3
100
AcDbCircle
 10
129.9021597395
 20
-118.8589739706
 30
-63.999999978
 40
47.0
210
0.0
220
-1.0
230
0.0
100
AcDbArc
 50
0.0
 51
90.0
  0
LINE
  5
14E
100
AcDbEntity
  8
CK_LEVEL_1
  6
CONTINUOUS
 62
         3
100
AcDbLine
 10
129.9021597395
 20
88.999999978
 30
-71.8589739706
 11
129.9021597395
 21
63.999999978
 31
-71.8589739706
  0
ARC
  5
14F
100
AcDbEntity
  8
CK_LEVEL_1
  6
CONTINUOUS
 62
         3
100
AcDbCircle
 10
129.9021597395
 20
-118.8589739706
 30
-88.999999978
 40
47.0
210
0.0
220
-1.0
230
0.0
100
AcDbArc
 50
0.0
 51
90.0
  0
LINE
  5
150
100
AcDbEntity
  8
CK_LEVEL_1
  6
CONTINUOUS
 62
         3
100
AcDbLine
 10
129.9021597395
 20
63.999999978
 30
-71.8589739706
 11
-52.0978402605
 21
63.999999978
 31
-71.8589739706
  0
LINE
  5
151
100
AcDbEntity
  8
CK_LEVEL_1
  6
CONTINUOUS
 62
         3
100
AcDbLine
 10
-52.0978402605
 20
88.999999978
 30
-71.8589739706
 11
-52.0978402605
 21
63.999999978
 31
-71.8589739706
  0
LINE
  5
152
100
AcDbEntity
  8
CK_LEVEL_1
  6
CONTINUOUS
 62
         3
100
AcDbLine
 10
129.9021597395
 20
88.999999978
 30
-71.8589739706
 11
-52.0978402605
 21
88.999999978
 31
-71.8589739706
  0
LINE
  5
153
100
AcDbEntity
  8
CK_LEVEL_1
  6
CONTINUOUS
 62
         3
100
AcDbLine
 10
-52.0978402605
 20
63.999999978
 30
-71.8589739706
 11
-52.0978402605
 21
63.999999978
 31
-65.8589739706
  0
LINE
  5
154
100
AcDbEntity
  8
CK_LEVEL_1
  6
CONTINUOUS
 62
         3
100
AcDbLine
 10
-52.0978402605
 20
88.999999978
 30
-65.8589739706
 11
-52.0978402605
 21
63.999999978
 31
-65.8589739706
  0
LINE
  5
155
100
AcDbEntity
  8
CK_LEVEL_1
  6
CONTINUOUS
 62
         3
100
AcDbLine
 10
-52.0978402605
 20
88.999999978
 30
-71.8589739706
 11
-52.0978402605
 21
88.999999978
 31
-65.8589739706
  0
LINE
  5
156
100
AcDbEntity
  8
CK_LEVEL_1
  6
CONTINUOUS
 62
         3
100
AcDbLine
 10
-52.0978402605
 20
63.999999978
 30
-65.8589739706
 11
129.9021597395
 21
63.999999978
 31
-65.8589739706
  0
ENDBLK
  5
157
100
AcDbEntity
  8
0
  6
CONTINUOUS
100
AcDbBlockEnd
  0
ENDSEC
  0
SECTION
  2
ENTITIES
  0
INSERT
  5
32
100
AcDbEntity
  8
0
  6
CONTINUOUS
100
AcDbBlockReference
  2
CKCOLL3041
 10
0.0
 20
0.0
 30
0.0
  0
INSERT
  5
4F
100
AcDbEntity
  8
0
  6
CONTINUOUS
100
AcDbBlockReference
  2
CKCOLL3027
 10
0.0
 20
0.0
 30
0.0
  0
INSERT
  5
97
100
AcDbEntity
  8
0
  6
CONTINUOUS
100
AcDbBlockReference
  2
CKCOLL2957
 10
0.0
 20
0.0
 30
0.0
  0
INSERT
  5
A8
100
AcDbEntity
  8
0
  6
CONTINUOUS
100
AcDbBlockReference
  2
CKCOLL2868
 10
0.0
 20
0.0
 30
0.0
  0
INSERT
  5
C5
100
AcDbEntity
  8
0
  6
CONTINUOUS
100
AcDbBlockReference
  2
CKCOLL2823
 10
0.0
 20
0.0
 30
0.0
  0
INSERT
  5
10D
100
AcDbEntity
  8
0
  6
CONTINUOUS
100
AcDbBlockReference
  2
CKCOLL2079
 10
0.0
 20
0.0
 30
0.0
  0
INSERT
  5
118
100
AcDbEntity
  8
0
  6
CONTINUOUS
100
AcDbBlockReference
  2
CKCOLL3241
 10
0.0
 20
0.0
 30
0.0
  0
INSERT
  5
123
100
AcDbEntity
  8
0
  6
CONTINUOUS
100
AcDbBlockReference
  2
CKCOLL3248
 10
0.0
 20
0.0
 30
0.0
  0
CIRCLE
  5
124
100
AcDbEntity
  8
CK_LEVEL_1
  6
CONTINUOUS
 62
         3
100
AcDbCircle
 10
-23.500000022
 20
-68.8589739706
 30
-32.0099722949
 40
15.25
210
1.0
220
0.0
230
0.0
  0
CIRCLE
  5
125
100
AcDbEntity
  8
CK_LEVEL_1
  6
CONTINUOUS
 62
         3
100
AcDbCircle
 10
176.499999978
 20
-68.8589739706
 30
-32.0099722949
 40
15.25
210
1.0
220
0.0
230
0.0
  0
INSERT
  5
142
100
AcDbEntity
  8
0
  6
CONTINUOUS
100
AcDbBlockReference
  2
CKCOLL3311
 10
0.0
 20
0.0
 30
0.0
  0
INSERT
  5
159
100
AcDbEntity
  8
0
  6
CONTINUOUS
100
AcDbBlockReference
  2
CKCOLL3441
 10
0.0
 20
0.0
 30
0.0
  0
ENDSEC
  0
SECTION
  2
OBJECTS
  0
DICTIONARY
  5
19
100
AcDbDictionary
  3
ACAD_GROUP
350
1A
  3
ACAD_MLINESTYLE
350
1B
  0
DICTIONARY
  5
1A
102
{ACAD_REACTORS
330
19
102
}
100
AcDbDictionary
  0
DICTIONARY
  5
1B
102
{ACAD_REACTORS
330
19
102
}
100
AcDbDictionary
  3
STANDARD
350
1C
  0
MLINESTYLE
  5
1C
102
{ACAD_REACTORS
330
1B
102
}
100
AcDbMlineStyle
  2
STANDARD
 70
         0
  3

 62
         0
 51
90.0
 52
90.0
 71
         2
 49
0.5
 62
       256
  6
BYLAYER
 49
-0.5
 62
       256
  6
BYLAYER
  0
ENDSEC
  0
EOF
