  0
SECTION
  2
HEADER
  9
$ACADVER
  1
AC1014
  9
$ACADMAINTVER
 70
         0
  9
$DWGCODEPAGE
  3
DOS850
  9
$INSBASE
 10
0.0
 20
0.0
 30
0.0
  9
$EXTMIN
 10
-244.1720850938
 20
-4816.9844220477
 30
0.0
  9
$EXTMAX
 10
213.7458069803
 20
-4507.2377466337
 30
0.0
  9
$LIMMIN
 10
0.0
 20
0.0
  9
$LIMMAX
 10
0.0
 20
0.0
  9
$ORTHOMODE
 70
         0
  9
$REGENMODE
 70
         1
  9
$FILLMODE
 70
         1
  9
$QTEXTMODE
 70
         0
  9
$MIRRTEXT
 70
         1
  9
$DRAGMODE
 70
         2
  9
$LTSCALE
 40
1.0
  9
$OSMODE
 70
         0
  9
$ATTMODE
 70
         1
  9
$TEXTSIZE
 40
16.0
  9
$TRACEWID
 40
0.05
  9
$TEXTSTYLE
  7
STANDARD
  9
$CLAYER
  8
0
  9
$CELTYPE
  6
CONTINUOUS
  9
$CECOLOR
 62
         1
  9
$CELTSCALE
 40
1.0
  9
$DELOBJ
 70
         1
  9
$DISPSILH
 70
         0
  9
$DIMSCALE
 40
1.0
  9
$DIMASZ
 40
0.18
  9
$DIMEXO
 40
0.0625
  9
$DIMDLI
 40
0.38
  9
$DIMRND
 40
0.0
  9
$DIMDLE
 40
0.0
  9
$DIMEXE
 40
0.25
  9
$DIMTP
 40
0.01
  9
$DIMTM
 40
-0.001
  9
$DIMTXT
 40
24.0
  9
$DIMCEN
 40
0.09
  9
$DIMTSZ
 40
0.0
  9
$DIMTOL
 70
         0
  9
$DIMLIM
 70
         0
  9
$DIMTIH
 70
         1
  9
$DIMTOH
 70
         1
  9
$DIMSE1
 70
         0
  9
$DIMSE2
 70
         0
  9
$DIMTAD
 70
         0
  9
$DIMZIN
 70
         0
  9
$DIMBLK
  1

  9
$DIMASO
 70
         1
  9
$DIMSHO
 70
         1
  9
$DIMPOST
  1

  9
$DIMAPOST
  1

  9
$DIMALT
 70
         0
  9
$DIMALTD
 70
         2
  9
$DIMALTF
 40
25.4
  9
$DIMLFAC
 40
1.0
  9
$DIMTOFL
 70
         0
  9
$DIMTVP
 40
0.0
  9
$DIMTIX
 70
         0
  9
$DIMSOXD
 70
         0
  9
$DIMSAH
 70
         0
  9
$DIMBLK1
  1

  9
$DIMBLK2
  1

  9
$DIMSTYLE
  2
STANDARD
  9
$DIMCLRD
 70
         0
  9
$DIMCLRE
 70
         0
  9
$DIMCLRT
 70
         1
  9
$DIMTFAC
 40
1.0
  9
$DIMGAP
 40
0.09
  9
$DIMJUST
 70
         0
  9
$DIMSD1
 70
         0
  9
$DIMSD2
 70
         0
  9
$DIMTOLJ
 70
         1
  9
$DIMTZIN
 70
         0
  9
$DIMALTZ
 70
         0
  9
$DIMALTTZ
 70
         0
  9
$DIMFIT
 70
         3
  9
$DIMUPT
 70
         0
  9
$DIMUNIT
 70
         2
  9
$DIMDEC
 70
         4
  9
$DIMTDEC
 70
         4
  9
$DIMALTU
 70
         2
  9
$DIMALTTD
 70
         2
  9
$DIMTXSTY
  7
STANDARD
  9
$DIMAUNIT
 70
         0
  9
$LUNITS
 70
         2
  9
$LUPREC
 70
        10
  9
$SKETCHINC
 40
0.1
  9
$FILLETRAD
 40
0.0
  9
$AUNITS
 70
         0
  9
$AUPREC
 70
         0
  9
$MENU
  1
acad
  9
$ELEVATION
 40
0.0
  9
$PELEVATION
 40
0.0
  9
$THICKNESS
 40
0.0
  9
$LIMCHECK
 70
         0
  9
$BLIPMODE
 70
         1
  9
$CHAMFERA
 40
0.0
  9
$CHAMFERB
 40
0.0
  9
$CHAMFERC
 40
0.0
  9
$CHAMFERD
 40
0.0
  9
$SKPOLY
 70
         0
  9
$TDCREATE
 40
0.000000000
  9
$TDUPDATE
 40
0.000000000
  9
$TDINDWG
 40
0.0000000000
  9
$TDUSRTIMER
 40
0.0000000000
  9
$USRTIMER
 70
         1
  9
$ANGBASE
 50
0.0
  9
$ANGDIR
 70
         0
  9
$PDMODE
 70
         2
  9
$PDSIZE
 40
0.0
  9
$PLINEWID
 40
0.0
  9
$COORDS
 70
         0
  9
$SPLFRAME
 70
         0
  9
$SPLINETYPE
 70
         6
  9
$SPLINESEGS
 70
         8
  9
$ATTDIA
 70
         0
  9
$ATTREQ
 70
         1
  9
$HANDLING
 70
         1
  9
$HANDSEED
  5
381
  9
$SURFTAB1
 70
         6
  9
$SURFTAB2
 70
         6
  9
$SURFTYPE
 70
         6
  9
$SURFU
 70
         6
  9
$SURFV
 70
         6
  9
$UCSNAME
  2

  9
$UCSORG
 10
0.0
 20
0.0
 30
0.0
  9
$UCSXDIR
 10
1.0
 20
0.0
 30
0.0
  9
$UCSYDIR
 10
0.0
 20
1.0
 30
0.0
  9
$PUCSNAME
  2

  9
$PUCSORG
 10
0.0
 20
0.0
 30
0.0
  9
$PUCSXDIR
 10
1.0
 20
0.0
 30
0.0
  9
$PUCSYDIR
 10
0.0
 20
1.0
 30
0.0
  9
$USERI1
 70
         0
  9
$USERI2
 70
         0
  9
$USERI3
 70
         0
  9
$USERI4
 70
         0
  9
$USERI5
 70
         0
  9
$USERR1
 40
0.0
  9
$USERR2
 40
0.0
  9
$USERR3
 40
0.0
  9
$USERR4
 40
0.0
  9
$USERR5
 40
0.0
  9
$WORLDVIEW
 70
         1
  9
$SHADEDGE
 70
         3
  9
$SHADEDIF
 70
        70
  9
$TILEMODE
 70
         1
  9
$MAXACTVP
 70
        16
  9
$PINSBASE
 10
0.0
 20
0.0
 30
0.0
  9
$PLIMCHECK
 70
         0
  9
$PEXTMIN
 10
1.0000000000E+20
 20
1.0000000000E+20
 30
1.0000000000E+20
  9
$PEXTMAX
 10
-1.0000000000E+20
 20
-1.0000000000E+20
 30
-1.0000000000E+20
  9
$PLIMMIN
 10
0.0
 20
0.0
  9
$PLIMMAX
 10
12.0
 20
9.0
  9
$UNITMODE
 70
         0
  9
$VISRETAIN
 70
         0
  9
$PLINEGEN
 70
         1
  9
$PSLTSCALE
 70
         0
  9
$TREEDEPTH
 70
      3020
  9
$PICKSTYLE
 70
         1
  9
$CMLSTYLE
  2
STANDARD
  9
$CMLJUST
 70
         0
  9
$CMLSCALE
 40
1.0
  9
$PROXYGRAPHICS
 70
         0
  9
$MEASUREMENT
 70
         0
  0
ENDSEC
  0
SECTION
  2
CLASSES
  0
CLASS
  1
LWPOLYLINE
  2
AcDbPolyline
  3
"AutoCAD"
 90
        0
280
         0
281
         1
  0
CLASS
  1
IMAGE
  2
AcDbRasterImage
  3
ISM
 90
      127
280
         0
281
         1
  0
CLASS
  1
OLE2FRAME
  2
AcDbOle2Frame
  3
""
 90
        0
280
         0
281
         1
  0
CLASS
  1
HATCH
  2
AcDbHatch
  3
"ACAD_SEDONA"
 90
        0
280
         0
281
         1
  0
CLASS
  1
DICTIONARYVAR
  2
AcDbDictionaryVar
  3
"AutoCAD"
 90
        0
280
         0
281
         0
  0
CLASS
  1
RASTERVARIABLES
  2
AcDbRasterVariables
  3
ISM
 90
        0
280
         0
281
         0
  0
CLASS
  1
IMAGEDEF
  2
AcDbRasterImageDef
  3
ISM
 90
        0
280
         0
281
         0
  0
CLASS
  1
IMAGEDEF_REACTOR
  2
AcDbRasterImageDefReactor
  3
ISM
 90
        1
280
         0
281
         0
  0
CLASS
  1
IDBUFFER
  2
AcDbIdBuffer
  3
"Acad"
 90
        0
280
         0
281
         0
  0
CLASS
  1
SPATIAL_FILTER
  2
AcDbSpatialFilter
  3
"Acad"
 90
        0
280
         0
281
         0
  0
CLASS
  1
XRECORD
  2
AcDbXrecord
  3
"<Built In>"
 90
        0
280
         0
281
         0
  0
CLASS
  1
SORTENTSTABLE
  2
AcDbSortentsTable
  3
"AutoCAD"
 90
        0
280
         0
281
         0
  0
CLASS
  1
LAYER_INDEX
  2
AcDbLayerIndex
  3
"Acad"
 90
        0
280
         0
281
         0
  0
CLASS
  1
SPATIAL_INDEX
  2
AcDbSpatialIndex
  3
"Acad"
 90
        0
280
         0
281
         0
  0
CLASS
  1
OBJECT_PTR
  2
CAseDLPNTableRecord
  3
"ASE-LPNTableRecord"
 90
        1
280
         0
281
         0
  0
CLASS
  1
LAYOUT
  2
AcDbLayout
  3
"AutoCAD 2000"
 90
        1
280
         0
281
         0
  0
CLASS
  1
PLOTSETTINGS
  2
AcDbPlotSettings
  3
"AutoCAD 2000"
 90
        1
280
         0
281
         0
  0
CLASS
  1
ACDBDICTIONARYWDFLT
  2
AcDbDictionaryWithDefault
  3
"AutoCAD 2000"
 90
        1
280
         0
281
         0
  0
CLASS
  1
ACDBPLACEHOLDER
  2
AcDbPlaceHolder
  3
"AutoCAD 2000"
 90
        1
280
         0
281
         0
  0
CLASS
  1
VBA_PROJECT
  2
AcDbVbaProject
  3
"acadvba"
 90
        1
280
         0
281
         0
  0
CLASS
  1
WIPEOUT
  2
AcDbWipeout
  3
WipeOut|AutoCAD Express Tool|expresstools@autodesk.com
 90
      127
280
         0
281
         1
  0
CLASS
  1
WIPEOUTVARIABLES
  2
AcDbWipeoutVariables
  3
WipeOut|AutoCAD Express Tool|expresstools@autodesk.com
 90
        0
280
         0
281
         0
  0
CLASS
  1
RTEXT
  2
RText
  3
RText|AutoCAD Express Tool|expresstools@autodesk.com
 90
        0
280
         0
281
         1
  0
CLASS
  1
ARCALIGNEDTEXT
  2
AcDbArcAlignedText
  3
ATEXT|AutoCAD Express Tool|expresstools@autodesk.com
 90
        0
280
         0
281
         1
  0
ENDSEC
  0
SECTION
  2
TABLES
  0
TABLE
  2
VPORT
  5
7
100
AcDbSymbolTable
 70
         1
  0
VPORT
  5
15
100
AcDbSymbolTableRecord
100
AcDbViewportTableRecord
  2
*ACTIVE
 70
         0
 10
0.0
 20
0.0
 11
1.0
 21
1.0
 12
-15.2131390567
 22
-4662.1110843407
 13
0.0
 23
0.0
 14
1.0
 24
1.0
 15
0.0
 25
0.0
 16
0.0
 26
0.0
 36
1.0
 17
0.0
 27
0.0
 37
0.0
 40
309.746675414
 41
1.4783625731
 42
50.0
 43
0.0
 44
0.0
 50
0.0
 51
0.0
 71
         0
 72
       100
 73
         1
 74
         1
 75
         0
 76
         0
 77
         0
 78
         0
  0
ENDTAB
  0
TABLE
  2
LTYPE
  5
4
100
AcDbSymbolTable
 70
         6
  0
LTYPE
  5
11
100
AcDbSymbolTableRecord
100
AcDbLinetypeTableRecord
  2
BYBLOCK
 70
        64
  3

 72
        65
 73
         0
 40
0.0
  0
LTYPE
  5
12
100
AcDbSymbolTableRecord
100
AcDbLinetypeTableRecord
  2
BYLAYER
 70
        64
  3

 72
        65
 73
         0
 40
0.0
  0
LTYPE
  5
13
100
AcDbSymbolTableRecord
100
AcDbLinetypeTableRecord
  2
CONTINUOUS
 70
        64
  3
Solid line
 72
        65
 73
         0
 40
0.0
  0
LTYPE
  5
1D
100
AcDbSymbolTableRecord
100
AcDbLinetypeTableRecord
  2
DASHED
 70
        64
  3
_ _ _ _ _ _ _ _ _ _ _ _ _ _ _ _
 72
        65
 73
         2
 40
0.2
 49
0.1
 74
         0
 49
-0.1
 74
         0
  0
LTYPE
  5
1E
100
AcDbSymbolTableRecord
100
AcDbLinetypeTableRecord
  2
CENTER
 70
        64
  3
___ _ ___ _ ___ _ ___ _ ___ _ ___ _ ___ _ ___ _
 72
        65
 73
         4
 40
0.95
 49
0.625
 74
         0
 49
-0.125
 74
         0
 49
0.075
 74
         0
 49
-0.125
 74
         0
  0
LTYPE
  5
1F
100
AcDbSymbolTableRecord
100
AcDbLinetypeTableRecord
  2
PHANTOM
 70
        64
  3
______  __  __  ______  __  __  ______  __  __  
 72
        65
 73
         6
 40
1.025
 49
0.625
 74
         0
 49
-0.125
 74
         0
 49
0.075
 74
         0
 49
-0.125
 74
         0
 49
0.075
 74
         0
 49
-0.125
 74
         0
  0
ENDTAB
  0
TABLE
  2
LAYER
  5
2
100
AcDbSymbolTable
 70
         2
  0
LAYER
  5
14
100
AcDbSymbolTableRecord
100
AcDbLayerTableRecord
  2
0
 70
         0
 62
         7
  6
CONTINUOUS
  0
LAYER
  5
21
100
AcDbSymbolTableRecord
100
AcDbLayerTableRecord
  2
CK_LEVEL_1
 70
         0
 62
         7
  6
CONTINUOUS
  0
ENDTAB
  0
TABLE
  2
STYLE
  5
3
100
AcDbSymbolTable
 70
         1
  0
STYLE
  5
17
100
AcDbSymbolTableRecord
100
AcDbTextStyleTableRecord
  2
STANDARD
 70
         0
 40
0.0
 41
1.0
 50
0.0
 71
         0
 42
0.0
  3
txt
  4

  0
ENDTAB
  0
TABLE
  2
VIEW
  5
5
100
AcDbSymbolTable
 70
         0
  0
ENDTAB
  0
TABLE
  2
UCS
  5
6
100
AcDbSymbolTable
 70
         1
  0
UCS
  5
20
100
AcDbSymbolTableRecord
100
AcDbUCSTableRecord
  2
CK_VIEW_1
 70
         0
 10
0.0
 20
0.0
 30
1.0
 11
1.0
 21
0.0
 31
0.0
 12
0.0
 22
1.0
 32
0.0
  0
ENDTAB
  0
TABLE
  2
APPID
  5
8
100
AcDbSymbolTable
 70
         1
  0
APPID
  5
16
100
AcDbSymbolTableRecord
100
AcDbRegAppTableRecord
  2
ACAD
 70
         0
  0
ENDTAB
  0
TABLE
  2
DIMSTYLE
  5
9
100
AcDbSymbolTable
 70
         1
  0
DIMSTYLE
105
18
100
AcDbSymbolTableRecord
100
AcDbDimStyleTableRecord
  2
STANDARD
 70
         0
  3

  4

  5

  6

  7

 40
1.0
 41
0.18
 42
0.0625
 43
0.38
 44
0.18
 45
0.0
 46
0.0
 47
0.0
 48
0.0
 71
         0
 72
         0
 73
         1
 74
         1
 75
         0
 76
         0
 77
         0
 78
         0
140
0.18
141
0.09
142
0.0
143
25.4
144
1.0
145
0.0
146
1.0
147
0.09
170
         0
171
         2
172
         0
173
         0
174
         0
175
         0
176
         0
177
         0
178
         0
270
         2
271
         4
272
         4
273
         2
274
         2
275
         0
280
         0
281
         0
282
         0
283
         1
284
         0
285
         0
286
         0
287
         0
288
         0
340
17
  0
ENDTAB
  0
TABLE
  2
BLOCK_RECORD
  5
1
100
AcDbSymbolTable
 70
         5
  0
BLOCK_RECORD
  5
A
100
AcDbSymbolTableRecord
100
AcDbBlockTableRecord
  2
*MODEL_SPACE
  0
BLOCK_RECORD
  5
B
100
AcDbSymbolTableRecord
100
AcDbBlockTableRecord
  2
*PAPER_SPACE
  0
BLOCK_RECORD
  5
22
100
AcDbSymbolTableRecord
100
AcDbBlockTableRecord
  2
CKCOLL190875
  0
BLOCK_RECORD
  5
4E
100
AcDbSymbolTableRecord
100
AcDbBlockTableRecord
  2
CKCOLL190905
  0
BLOCK_RECORD
  5
348
100
AcDbSymbolTableRecord
100
AcDbBlockTableRecord
  2
CKCOLL190917
  0
BLOCK_RECORD
  5
359
100
AcDbSymbolTableRecord
100
AcDbBlockTableRecord
  2
CKCOLL190952
  0
BLOCK_RECORD
  5
36A
100
AcDbSymbolTableRecord
100
AcDbBlockTableRecord
  2
CKCOLL190966
  0
ENDTAB
  0
ENDSEC
  0
SECTION
  2
BLOCKS
  0
BLOCK
  5
D
100
AcDbEntity
  8
0
100
AcDbBlockBegin
  2
*MODEL_SPACE
 70
         0
 10
0.0
 20
0.0
 30
0.0
  3
*MODEL_SPACE
  1

  0
ENDBLK
  5
E
100
AcDbEntity
  8
0
100
AcDbBlockEnd
  0
BLOCK
  5
F
100
AcDbEntity
 67
         1
  8
0
100
AcDbBlockBegin
  2
*PAPER_SPACE
 70
         0
 10
0.0
 20
0.0
 30
0.0
  3
*PAPER_SPACE
  1

  0
ENDBLK
  5
10
100
AcDbEntity
 67
         1
  8
0
100
AcDbBlockEnd
  0
BLOCK
  5
23
100
AcDbEntity
  8
0
100
AcDbBlockBegin
  2
CKCOLL190875
 70
        64
 10
0.0
 20
0.0
 30
0.0
  3
CKCOLL190875
  1

  0
CIRCLE
  5
24
100
AcDbEntity
  8
CK_LEVEL_1
  6
CONTINUOUS
 62
         1
100
AcDbCircle
 10
-5704.6885310423
 20
-5856.8183823118
 30
-85.4087000275
 40
25.0
210
0.0
220
0.0
230
-1.0
  0
CIRCLE
  5
25
100
AcDbEntity
  8
CK_LEVEL_1
  6
CONTINUOUS
 62
         1
100
AcDbCircle
 10
-5704.6885310423
 20
-5856.8183823118
 30
-203.9087000275
 40
20.0
210
0.0
220
0.0
230
-1.0
  0
ARC
  5
26
100
AcDbEntity
  8
CK_LEVEL_1
  6
CONTINUOUS
 62
         1
100
AcDbCircle
 10
5679.1885310423
 20
170.4087000275
 30
5856.8183823118
 40
0.5
210
0.0
220
-1.0
230
0.0
100
AcDbArc
 50
180.0
 51
270.0
  0
ARC
  5
27
100
AcDbEntity
  8
CK_LEVEL_1
  6
CONTINUOUS
 62
         1
100
AcDbCircle
 10
5831.3183823118
 20
170.4087000275
 30
-5704.6885310423
 40
0.5
210
-1.0
220
0.0
230
0.0
100
AcDbArc
 50
180.0
 51
270.0
  0
ARC
  5
28
100
AcDbEntity
  8
CK_LEVEL_1
  6
CONTINUOUS
 62
         1
100
AcDbCircle
 10
-5730.1885310423
 20
170.4087000275
 30
-5856.8183823118
 40
0.5
210
0.0
220
1.0
230
0.0
100
AcDbArc
 50
180.0
 51
270.0
  0
ARC
  5
29
100
AcDbEntity
  8
CK_LEVEL_1
  6
CONTINUOUS
 62
         1
100
AcDbCircle
 10
-5882.3183823118
 20
170.4087000275
 30
5704.6885310423
 40
0.5
210
1.0
220
0.0
230
0.0
100
AcDbArc
 50
180.0
 51
270.0
  0
CIRCLE
  5
2A
100
AcDbEntity
  8
CK_LEVEL_1
  6
CONTINUOUS
 62
         1
100
AcDbCircle
 10
-5704.6885310423
 20
-5856.8183823118
 30
-170.0551466369
 40
25.8535533906
210
0.0
220
0.0
230
-1.0
  0
LINE
  5
2B
100
AcDbEntity
  8
CK_LEVEL_1
  6
CONTINUOUS
 62
         1
100
AcDbLine
 10
5704.6885310423
 20
-5882.8183823118
 30
224.9087000275
 11
5704.6885310423
 21
-5882.8183823118
 31
170.4087000275
  0
LINE
  5
2C
100
AcDbEntity
  8
CK_LEVEL_1
  6
CONTINUOUS
 62
         1
100
AcDbLine
 10
5678.6885310423
 20
-5856.8183823118
 30
224.9087000275
 11
5678.6885310423
 21
-5856.8183823118
 31
170.4087000275
  0
LINE
  5
2D
100
AcDbEntity
  8
CK_LEVEL_1
  6
CONTINUOUS
 62
         1
100
AcDbLine
 10
5704.6885310423
 20
-5830.8183823118
 30
224.9087000275
 11
5704.6885310423
 21
-5830.8183823118
 31
170.4087000275
  0
LINE
  5
2E
100
AcDbEntity
  8
CK_LEVEL_1
  6
CONTINUOUS
 62
         1
100
AcDbLine
 10
5730.6885310423
 20
-5856.8183823118
 30
224.9087000275
 11
5730.6885310423
 21
-5856.8183823118
 31
170.4087000275
  0
LINE
  5
2F
100
AcDbEntity
  8
CK_LEVEL_1
  6
CONTINUOUS
 62
         1
100
AcDbLine
 10
5704.6885310423
 20
-5877.8183823118
 30
223.9087000275
 11
5704.6885310423
 21
-5878.8183823118
 31
224.9087000275
  0
LINE
  5
30
100
AcDbEntity
  8
CK_LEVEL_1
  6
CONTINUOUS
 62
         1
100
AcDbLine
 10
5725.6885310423
 20
-5856.8183823118
 30
223.9087000275
 11
5726.6885310423
 21
-5856.8183823118
 31
224.9087000275
  0
LINE
  5
31
100
AcDbEntity
  8
CK_LEVEL_1
  6
CONTINUOUS
 62
         1
100
AcDbLine
 10
5704.6885310423
 20
-5835.8183823118
 30
223.9087000275
 11
5704.6885310423
 21
-5834.8183823118
 31
224.9087000275
  0
LINE
  5
32
100
AcDbEntity
  8
CK_LEVEL_1
  6
CONTINUOUS
 62
         1
100
AcDbLine
 10
5683.6885310423
 20
-5856.8183823118
 30
223.9087000275
 11
5682.6885310423
 21
-5856.8183823118
 31
224.9087000275
  0
LINE
  5
33
100
AcDbEntity
  8
CK_LEVEL_1
  6
CONTINUOUS
 62
         1
100
AcDbLine
 10
5704.6885310423
 20
-5877.8183823118
 30
223.9087000275
 11
5704.6885310423
 21
-5877.8183823118
 31
204.9087000275
  0
LINE
  5
34
100
AcDbEntity
  8
CK_LEVEL_1
  6
CONTINUOUS
 62
         1
100
AcDbLine
 10
5683.6885310423
 20
-5856.8183823118
 30
223.9087000275
 11
5683.6885310423
 21
-5856.8183823118
 31
204.9087000275
  0
LINE
  5
35
100
AcDbEntity
  8
CK_LEVEL_1
  6
CONTINUOUS
 62
         1
100
AcDbLine
 10
5704.6885310423
 20
-5835.8183823118
 30
223.9087000275
 11
5704.6885310423
 21
-5835.8183823118
 31
204.9087000275
  0
LINE
  5
36
100
AcDbEntity
  8
CK_LEVEL_1
  6
CONTINUOUS
 62
         1
100
AcDbLine
 10
5725.6885310423
 20
-5856.8183823118
 30
223.9087000275
 11
5725.6885310423
 21
-5856.8183823118
 31
204.9087000275
  0
LINE
  5
37
100
AcDbEntity
  8
CK_LEVEL_1
  6
CONTINUOUS
 62
         1
100
AcDbLine
 10
5704.6885310423
 20
-5876.8183823118
 30
203.9087000275
 11
5704.6885310423
 21
-5876.8183823118
 31
85.4087000275
  0
LINE
  5
38
100
AcDbEntity
  8
CK_LEVEL_1
  6
CONTINUOUS
 62
         1
100
AcDbLine
 10
5684.6885310423
 20
-5856.8183823118
 30
203.9087000275
 11
5684.6885310423
 21
-5856.8183823118
 31
85.4087000275
  0
LINE
  5
39
100
AcDbEntity
  8
CK_LEVEL_1
  6
CONTINUOUS
 62
         1
100
AcDbLine
 10
5704.6885310423
 20
-5836.8183823118
 30
203.9087000275
 11
5704.6885310423
 21
-5836.8183823118
 31
85.4087000275
  0
LINE
  5
3A
100
AcDbEntity
  8
CK_LEVEL_1
  6
CONTINUOUS
 62
         1
100
AcDbLine
 10
5724.6885310423
 20
-5856.8183823118
 30
203.9087000275
 11
5724.6885310423
 21
-5856.8183823118
 31
85.4087000275
  0
LINE
  5
3B
100
AcDbEntity
  8
CK_LEVEL_1
  6
CONTINUOUS
 62
         1
100
AcDbLine
 10
5704.6885310423
 20
-5877.8183823118
 30
204.9087000275
 11
5704.6885310423
 21
-5876.8183823118
 31
203.9087000275
  0
LINE
  5
3C
100
AcDbEntity
  8
CK_LEVEL_1
  6
CONTINUOUS
 62
         1
100
AcDbLine
 10
5683.6885310423
 20
-5856.8183823118
 30
204.9087000275
 11
5684.6885310423
 21
-5856.8183823118
 31
203.9087000275
  0
LINE
  5
3D
100
AcDbEntity
  8
CK_LEVEL_1
  6
CONTINUOUS
 62
         1
100
AcDbLine
 10
5704.6885310423
 20
-5835.8183823118
 30
204.9087000275
 11
5704.6885310423
 21
-5836.8183823118
 31
203.9087000275
  0
LINE
  5
3E
100
AcDbEntity
  8
CK_LEVEL_1
  6
CONTINUOUS
 62
         1
100
AcDbLine
 10
5725.6885310423
 20
-5856.8183823118
 30
204.9087000275
 11
5724.6885310423
 21
-5856.8183823118
 31
203.9087000275
  0
LINE
  5
3F
100
AcDbEntity
  8
CK_LEVEL_1
  6
CONTINUOUS
 62
         1
100
AcDbLine
 10
5704.6885310423
 20
-5881.8183823118
 30
169.9087000275
 11
5704.6885310423
 21
-5881.8183823118
 31
85.4087000275
  0
LINE
  5
40
100
AcDbEntity
  8
CK_LEVEL_1
  6
CONTINUOUS
 62
         1
100
AcDbLine
 10
5679.6885310423
 20
-5856.8183823118
 30
169.9087000275
 11
5679.6885310423
 21
-5856.8183823118
 31
85.4087000275
  0
LINE
  5
41
100
AcDbEntity
  8
CK_LEVEL_1
  6
CONTINUOUS
 62
         1
100
AcDbLine
 10
5704.6885310423
 20
-5831.8183823118
 30
169.9087000275
 11
5704.6885310423
 21
-5831.8183823118
 31
85.4087000275
  0
LINE
  5
42
100
AcDbEntity
  8
CK_LEVEL_1
  6
CONTINUOUS
 62
         1
100
AcDbLine
 10
5729.6885310423
 20
-5856.8183823118
 30
169.9087000275
 11
5729.6885310423
 21
-5856.8183823118
 31
85.4087000275
  0
CIRCLE
  5
43
100
AcDbEntity
  8
CK_LEVEL_1
  6
CONTINUOUS
 62
         1
100
AcDbCircle
 10
-5704.6885310423
 20
-5856.8183823118
 30
-170.4087000275
 40
26.0
210
0.0
220
0.0
230
-1.0
  0
CIRCLE
  5
44
100
AcDbEntity
  8
CK_LEVEL_1
  6
CONTINUOUS
 62
         1
100
AcDbCircle
 10
5704.6885310423
 20
-5856.8183823118
 30
169.9087000275
 40
25.5
  0
CIRCLE
  5
45
100
AcDbEntity
  8
CK_LEVEL_1
  6
CONTINUOUS
 62
         1
100
AcDbCircle
 10
-5704.6885310423
 20
-5856.8183823118
 30
-224.9087000275
 40
26.0
210
0.0
220
0.0
230
-1.0
  0
CIRCLE
  5
46
100
AcDbEntity
  8
CK_LEVEL_1
  6
CONTINUOUS
 62
         1
100
AcDbCircle
 10
-5704.6885310423
 20
-5856.8183823118
 30
-169.9087000275
 40
25.0
210
0.0
220
0.0
230
-1.0
  0
CIRCLE
  5
47
100
AcDbEntity
  8
CK_LEVEL_1
  6
CONTINUOUS
 62
         1
100
AcDbCircle
 10
-5704.6885310423
 20
-5856.8183823118
 30
-223.9087000275
 40
21.0
210
0.0
220
0.0
230
-1.0
  0
CIRCLE
  5
48
100
AcDbEntity
  8
CK_LEVEL_1
  6
CONTINUOUS
 62
         1
100
AcDbCircle
 10
5704.6885310423
 20
-5856.8183823118
 30
224.9087000275
 40
22.0
  0
CIRCLE
  5
49
100
AcDbEntity
  8
CK_LEVEL_1
  6
CONTINUOUS
 62
         1
100
AcDbCircle
 10
-5704.6885310423
 20
-5856.8183823118
 30
-204.9087000275
 40
21.0
210
0.0
220
0.0
230
-1.0
  0
CIRCLE
  5
4A
100
AcDbEntity
  8
CK_LEVEL_1
  6
CONTINUOUS
 62
         1
100
AcDbCircle
 10
-5704.6885310423
 20
-5856.8183823118
 30
-85.4087000275
 40
20.0
210
0.0
220
0.0
230
-1.0
  0
ENDBLK
  5
4B
100
AcDbEntity
  8
0
  6
CONTINUOUS
100
AcDbBlockEnd
  0
BLOCK
  5
4F
100
AcDbEntity
  8
0
100
AcDbBlockBegin
  2
CKCOLL190905
 70
        64
 10
0.0
 20
0.0
 30
0.0
  3
CKCOLL190905
  1

  0
CIRCLE
  5
50
100
AcDbEntity
  8
CK_LEVEL_1
  6
CONTINUOUS
 62
         1
100
AcDbCircle
 10
5704.6885310423
 20
-5856.8183823118
 30
85.3087000275
 40
25.0
  0
CIRCLE
  5
51
100
AcDbEntity
  8
CK_LEVEL_1
  6
CONTINUOUS
 62
         1
100
AcDbCircle
 10
-5856.8183823118
 20
57.3087000275
 30
5752.1885310423
 40
25.0
210
1.0
220
0.0
230
0.0
  0
CIRCLE
  5
52
100
AcDbEntity
  8
CK_LEVEL_1
  6
CONTINUOUS
 62
         1
100
AcDbCircle
 10
5856.8183823118
 20
57.3087000275
 30
-5753.6885310423
 40
23.5
210
-1.0
220
0.0
230
0.0
  0
CIRCLE
  5
53
100
AcDbEntity
  8
CK_LEVEL_1
  6
CONTINUOUS
 62
         1
100
AcDbCircle
 10
5856.8183823118
 20
57.3087000275
 30
-5744.1885310423
 40
25.0
210
-1.0
220
0.0
230
0.0
  0
CIRCLE
  5
54
100
AcDbEntity
  8
CK_LEVEL_1
  6
CONTINUOUS
 62
         1
100
AcDbCircle
 10
-5856.8183823118
 20
57.3087000275
 30
5742.6885310423
 40
23.5
210
1.0
220
0.0
230
0.0
  0
CIRCLE
  5
55
100
AcDbEntity
  8
CK_LEVEL_1
  6
CONTINUOUS
 62
         1
100
AcDbCircle
 10
5856.8183823118
 20
57.3087000275
 30
-5742.6885310423
 40
17.5
210
-1.0
220
0.0
230
0.0
  0
CIRCLE
  5
56
100
AcDbEntity
  8
CK_LEVEL_1
  6
CONTINUOUS
 62
         1
100
AcDbCircle
 10
-5856.8183823118
 20
57.3087000275
 30
5741.1885310423
 40
16.0
210
1.0
220
0.0
230
0.0
  0
POLYLINE
  5
58
100
AcDbEntity
  8
CK_LEVEL_1
  6
CONTINUOUS
 62
         1
100
AcDb3dPolyline
 66
         1
 10
0.0
 20
0.0
 30
69.4925450177
 70
         8
  0
VERTEX
  5
5A
100
AcDbEntity
  8
CK_LEVEL_1
  6
CONTINUOUS
 62
         1
100
AcDbVertex
100
AcDb3dPolylineVertex
 10
5728.6381535941
 20
-5867.1892029763
 30
69.4925450177
 70
        32
  0
VERTEX
  5
5C
100
AcDbEntity
  8
CK_LEVEL_1
  6
CONTINUOUS
 62
         1
100
AcDbVertex
100
AcDb3dPolylineVertex
 10
5728.8974516923
 20
-5866.6725946755
 30
69.9137359647
 70
        32
  0
VERTEX
  5
5E
100
AcDbEntity
  8
CK_LEVEL_1
  6
CONTINUOUS
 62
         1
100
AcDbVertex
100
AcDb3dPolylineVertex
 10
5729.1170374587
 20
-5866.2078220547
 30
70.2631854461
 70
        32
  0
VERTEX
  5
60
100
AcDbEntity
  8
CK_LEVEL_1
  6
CONTINUOUS
 62
         1
100
AcDbVertex
100
AcDb3dPolylineVertex
 10
5729.3633506902
 20
-5865.6521516492
 30
70.6478605907
 70
        32
  0
VERTEX
  5
62
100
AcDbEntity
  8
CK_LEVEL_1
  6
CONTINUOUS
 62
         1
100
AcDbVertex
100
AcDb3dPolylineVertex
 10
5729.5587729616
 20
-5865.1812012269
 30
70.9479220655
 70
        32
  0
VERTEX
  5
64
100
AcDbEntity
  8
CK_LEVEL_1
  6
CONTINUOUS
 62
         1
100
AcDbVertex
100
AcDb3dPolylineVertex
 10
5729.7644730839
 20
-5864.6512038106
 30
71.2591721831
 70
        32
  0
VERTEX
  5
66
100
AcDbEntity
  8
CK_LEVEL_1
  6
CONTINUOUS
 62
         1
100
AcDbVertex
100
AcDb3dPolylineVertex
 10
5729.963325973
 20
-5864.0983168383
 30
71.5558643197
 70
        32
  0
VERTEX
  5
68
100
AcDbEntity
  8
CK_LEVEL_1
  6
CONTINUOUS
 62
         1
100
AcDbVertex
100
AcDb3dPolylineVertex
 10
5730.1344171461
 20
-5863.5829574871
 30
71.8080565101
 70
        32
  0
VERTEX
  5
6A
100
AcDbEntity
  8
CK_LEVEL_1
  6
CONTINUOUS
 62
         1
100
AcDbVertex
100
AcDb3dPolylineVertex
 10
5730.2991114057
 20
-5863.0427100772
 30
72.0483407904
 70
        32
  0
VERTEX
  5
6C
100
AcDbEntity
  8
CK_LEVEL_1
  6
CONTINUOUS
 62
         1
100
AcDbVertex
100
AcDb3dPolylineVertex
 10
5730.3513171767
 20
-5862.8603796576
 30
72.1240389731
 70
        32
  0
VERTEX
  5
6E
100
AcDbEntity
  8
CK_LEVEL_1
  6
CONTINUOUS
 62
         1
100
AcDbVertex
100
AcDb3dPolylineVertex
 10
5730.5058548786
 20
-5862.2795868712
 30
72.3472204627
 70
        32
  0
VERTEX
  5
70
100
AcDbEntity
  8
CK_LEVEL_1
  6
CONTINUOUS
 62
         1
100
AcDbVertex
100
AcDb3dPolylineVertex
 10
5730.6355640802
 20
-5861.7321616256
 30
72.5335871388
 70
        32
  0
VERTEX
  5
72
100
AcDbEntity
  8
CK_LEVEL_1
  6
CONTINUOUS
 62
         1
100
AcDbVertex
100
AcDb3dPolylineVertex
 10
5730.7439578619
 20
-5861.2179752653
 30
72.6885818632
 70
        32
  0
VERTEX
  5
74
100
AcDbEntity
  8
CK_LEVEL_1
  6
CONTINUOUS
 62
         1
100
AcDbVertex
100
AcDb3dPolylineVertex
 10
5730.86195791
 20
-5860.5746730325
 30
72.8564298348
 70
        32
  0
VERTEX
  5
76
100
AcDbEntity
  8
CK_LEVEL_1
  6
CONTINUOUS
 62
         1
100
AcDbVertex
100
AcDb3dPolylineVertex
 10
5730.9530096993
 20
-5859.9882426682
 30
72.9851981179
 70
        32
  0
VERTEX
  5
78
100
AcDbEntity
  8
CK_LEVEL_1
  6
CONTINUOUS
 62
         1
100
AcDbVertex
100
AcDb3dPolylineVertex
 10
5731.0224166476
 20
-5859.4553556088
 30
73.0828069096
 70
        32
  0
VERTEX
  5
7A
100
AcDbEntity
  8
CK_LEVEL_1
  6
CONTINUOUS
 62
         1
100
AcDbVertex
100
AcDb3dPolylineVertex
 10
5731.0896923536
 20
-5858.8106666538
 30
73.1768004607
 70
        32
  0
VERTEX
  5
7C
100
AcDbEntity
  8
CK_LEVEL_1
  6
CONTINUOUS
 62
         1
100
AcDbVertex
100
AcDb3dPolylineVertex
 10
5731.133579854
 20
-5858.2483495328
 30
73.2376053986
 70
        32
  0
VERTEX
  5
7E
100
AcDbEntity
  8
CK_LEVEL_1
  6
CONTINUOUS
 62
         1
100
AcDbVertex
100
AcDb3dPolylineVertex
 10
5731.1672709225
 20
-5857.5956378075
 30
73.2836929632
 70
        32
  0
VERTEX
  5
80
100
AcDbEntity
  8
CK_LEVEL_1
  6
CONTINUOUS
 62
         1
100
AcDbVertex
100
AcDb3dPolylineVertex
 10
5731.1810358275
 20
-5857.0575783895
 30
73.3019518532
 70
        32
  0
VERTEX
  5
82
100
AcDbEntity
  8
CK_LEVEL_1
  6
CONTINUOUS
 62
         1
100
AcDbVertex
100
AcDb3dPolylineVertex
 10
5731.181401635
 20
-5856.4672454137
 30
73.3013850182
 70
        32
  0
VERTEX
  5
84
100
AcDbEntity
  8
CK_LEVEL_1
  6
CONTINUOUS
 62
         1
100
AcDbVertex
100
AcDb3dPolylineVertex
 10
5731.1656906945
 20
-5855.8672769563
 30
73.2784901038
 70
        32
  0
VERTEX
  5
86
100
AcDbEntity
  8
CK_LEVEL_1
  6
CONTINUOUS
 62
         1
100
AcDbVertex
100
AcDb3dPolylineVertex
 10
5731.1369833233
 20
-5855.3216319593
 30
73.2377993196
 70
        32
  0
VERTEX
  5
88
100
AcDbEntity
  8
CK_LEVEL_1
  6
CONTINUOUS
 62
         1
100
AcDbVertex
100
AcDb3dPolylineVertex
 10
5731.0929262831
 20
-5854.7628917724
 30
73.1760652315
 70
        32
  0
VERTEX
  5
8A
100
AcDbEntity
  8
CK_LEVEL_1
  6
CONTINUOUS
 62
         1
100
AcDbVertex
100
AcDb3dPolylineVertex
 10
5731.074919039
 20
-5854.577257745
 30
73.1509650384
 70
        32
  0
VERTEX
  5
8C
100
AcDbEntity
  8
CK_LEVEL_1
  6
CONTINUOUS
 62
         1
100
AcDbVertex
100
AcDb3dPolylineVertex
 10
5731.0160129031
 20
-5854.0606602558
 30
73.0691108502
 70
        32
  0
VERTEX
  5
8E
100
AcDbEntity
  8
CK_LEVEL_1
  6
CONTINUOUS
 62
         1
100
AcDbVertex
100
AcDb3dPolylineVertex
 10
5730.9249050914
 20
-5853.4179012156
 30
72.9425354603
 70
        32
  0
VERTEX
  5
90
100
AcDbEntity
  8
CK_LEVEL_1
  6
CONTINUOUS
 62
         1
100
AcDbVertex
100
AcDb3dPolylineVertex
 10
5730.8246080599
 20
-5852.8312105582
 30
72.8026417597
 70
        32
  0
VERTEX
  5
92
100
AcDbEntity
  8
CK_LEVEL_1
  6
CONTINUOUS
 62
         1
100
AcDbVertex
100
AcDb3dPolylineVertex
 10
5730.7188485491
 20
-5852.2957887931
 30
72.6542280425
 70
        32
  0
VERTEX
  5
94
100
AcDbEntity
  8
CK_LEVEL_1
  6
CONTINUOUS
 62
         1
100
AcDbVertex
100
AcDb3dPolylineVertex
 10
5730.5722011466
 20
-5851.6457736622
 30
72.446701073
 70
        32
  0
VERTEX
  5
96
100
AcDbEntity
  8
CK_LEVEL_1
  6
CONTINUOUS
 62
         1
100
AcDbVertex
100
AcDb3dPolylineVertex
 10
5730.4258441693
 20
-5851.0712293012
 30
72.2374615025
 70
        32
  0
VERTEX
  5
98
100
AcDbEntity
  8
CK_LEVEL_1
  6
CONTINUOUS
 62
         1
100
AcDbVertex
100
AcDb3dPolylineVertex
 10
5730.2832346077
 20
-5850.5631831979
 30
72.0314780754
 70
        32
  0
VERTEX
  5
9A
100
AcDbEntity
  8
CK_LEVEL_1
  6
CONTINUOUS
 62
         1
100
AcDbVertex
100
AcDb3dPolylineVertex
 10
5730.0994178433
 20
-5849.9655231474
 30
71.7628542413
 70
        32
  0
VERTEX
  5
9C
100
AcDbEntity
  8
CK_LEVEL_1
  6
CONTINUOUS
 62
         1
100
AcDbVertex
100
AcDb3dPolylineVertex
 10
5729.9297279912
 20
-5849.458753605
 30
71.5116985092
 70
        32
  0
VERTEX
  5
9E
100
AcDbEntity
  8
CK_LEVEL_1
  6
CONTINUOUS
 62
         1
100
AcDbVertex
100
AcDb3dPolylineVertex
 10
5729.722623639
 20
-5848.8868363913
 30
71.2009475254
 70
        32
  0
VERTEX
  5
A0
100
AcDbEntity
  8
CK_LEVEL_1
  6
CONTINUOUS
 62
         1
100
AcDbVertex
100
AcDb3dPolylineVertex
 10
5729.4832709748
 20
-5848.2776589926
 30
70.8358838268
 70
        32
  0
VERTEX
  5
A2
100
AcDbEntity
  8
CK_LEVEL_1
  6
CONTINUOUS
 62
         1
100
AcDbVertex
100
AcDb3dPolylineVertex
 10
5729.2280634868
 20
-5847.6781985995
 30
70.4394032568
 70
        32
  0
VERTEX
  5
A4
100
AcDbEntity
  8
CK_LEVEL_1
  6
CONTINUOUS
 62
         1
100
AcDbVertex
100
AcDb3dPolylineVertex
 10
5728.9863673209
 20
-5847.1503690656
 30
70.056749416
 70
        32
  0
VERTEX
  5
A6
100
AcDbEntity
  8
CK_LEVEL_1
  6
CONTINUOUS
 62
         1
100
AcDbVertex
100
AcDb3dPolylineVertex
 10
5728.7301832299
 20
-5846.6272547179
 30
69.6431911631
 70
        32
  0
VERTEX
  5
A8
100
AcDbEntity
  8
CK_LEVEL_1
  6
CONTINUOUS
 62
         1
100
AcDbVertex
100
AcDb3dPolylineVertex
 10
5728.6432516487
 20
-5846.4574087019
 30
69.5009199178
 70
        32
  0
VERTEX
  5
AA
100
AcDbEntity
  8
CK_LEVEL_1
  6
CONTINUOUS
 62
         1
100
AcDbVertex
100
AcDb3dPolylineVertex
 10
5728.34979006
 20
-5845.9086755472
 30
69.0123290454
 70
        32
  0
VERTEX
  5
AC
100
AcDbEntity
  8
CK_LEVEL_1
  6
CONTINUOUS
 62
         1
100
AcDbVertex
100
AcDb3dPolylineVertex
 10
5728.0907588822
 20
-5845.4518288594
 30
68.5689237001
 70
        32
  0
VERTEX
  5
AE
100
AcDbEntity
  8
CK_LEVEL_1
  6
CONTINUOUS
 62
         1
100
AcDbVertex
100
AcDb3dPolylineVertex
 10
5727.7882881026
 20
-5844.9464209176
 30
68.0344838862
 70
        32
  0
VERTEX
  5
B0
100
AcDbEntity
  8
CK_LEVEL_1
  6
CONTINUOUS
 62
         1
100
AcDbVertex
100
AcDb3dPolylineVertex
 10
5727.5388038261
 20
-5844.5496089378
 30
67.5781415568
 70
        32
  0
VERTEX
  5
B2
100
AcDbEntity
  8
CK_LEVEL_1
  6
CONTINUOUS
 62
         1
100
AcDbVertex
100
AcDb3dPolylineVertex
 10
5727.2662910693
 20
-5844.1346987736
 30
67.0611348807
 70
        32
  0
VERTEX
  5
B4
100
AcDbEntity
  8
CK_LEVEL_1
  6
CONTINUOUS
 62
         1
100
AcDbVertex
100
AcDb3dPolylineVertex
 10
5726.9920402223
 20
-5843.7349337324
 30
66.5181439368
 70
        32
  0
VERTEX
  5
B6
100
AcDbEntity
  8
CK_LEVEL_1
  6
CONTINUOUS
 62
         1
100
AcDbVertex
100
AcDb3dPolylineVertex
 10
5726.7462552685
 20
-5843.3906646796
 30
66.0088261934
 70
        32
  0
VERTEX
  5
B8
100
AcDbEntity
  8
CK_LEVEL_1
  6
CONTINUOUS
 62
         1
100
AcDbVertex
100
AcDb3dPolylineVertex
 10
5726.499421422
 20
-5843.0574208883
 30
65.4717633998
 70
        32
  0
VERTEX
  5
BA
100
AcDbEntity
  8
CK_LEVEL_1
  6
CONTINUOUS
 62
         1
100
AcDbVertex
100
AcDb3dPolylineVertex
 10
5726.4187221882
 20
-5842.9510822409
 30
65.289802003
 70
        32
  0
VERTEX
  5
BC
100
AcDbEntity
  8
CK_LEVEL_1
  6
CONTINUOUS
 62
         1
100
AcDbVertex
100
AcDb3dPolylineVertex
 10
5726.2113248009
 20
-5842.683313033
 30
64.8048680845
 70
        32
  0
VERTEX
  5
BE
100
AcDbEntity
  8
CK_LEVEL_1
  6
CONTINUOUS
 62
         1
100
AcDbVertex
100
AcDb3dPolylineVertex
 10
5725.9711436945
 20
-5842.3825121141
 30
64.206474708
 70
        32
  0
VERTEX
  5
C0
100
AcDbEntity
  8
CK_LEVEL_1
  6
CONTINUOUS
 62
         1
100
AcDbVertex
100
AcDb3dPolylineVertex
 10
5725.772394553
 20
-5842.1406893662
 30
63.6744355901
 70
        32
  0
VERTEX
  5
C2
100
AcDbEntity
  8
CK_LEVEL_1
  6
CONTINUOUS
 62
         1
100
AcDbVertex
100
AcDb3dPolylineVertex
 10
5725.5557249808
 20
-5841.8839931233
 30
63.0454287878
 70
        32
  0
VERTEX
  5
C4
100
AcDbEntity
  8
CK_LEVEL_1
  6
CONTINUOUS
 62
         1
100
AcDbVertex
100
AcDb3dPolylineVertex
 10
5725.3896182917
 20
-5841.6919049533
 30
62.5178741523
 70
        32
  0
VERTEX
  5
C6
100
AcDbEntity
  8
CK_LEVEL_1
  6
CONTINUOUS
 62
         1
100
AcDbVertex
100
AcDb3dPolylineVertex
 10
5725.2216769782
 20
-5841.5017184808
 30
61.9298222768
 70
        32
  0
VERTEX
  5
C8
100
AcDbEntity
  8
CK_LEVEL_1
  6
CONTINUOUS
 62
         1
100
AcDbVertex
100
AcDb3dPolylineVertex
 10
5725.0677779054
 20
-5841.3309013366
 30
61.3223506812
 70
        32
  0
VERTEX
  5
CA
100
AcDbEntity
  8
CK_LEVEL_1
  6
CONTINUOUS
 62
         1
100
AcDbVertex
100
AcDb3dPolylineVertex
 10
5724.9438777629
 20
-5841.1957265483
 30
60.7613081537
 70
        32
  0
VERTEX
  5
CC
100
AcDbEntity
  8
CK_LEVEL_1
  6
CONTINUOUS
 62
         1
100
AcDbVertex
100
AcDb3dPolylineVertex
 10
5724.8343127682
 20
-5841.0778479214
 30
60.1783054907
 70
        32
  0
VERTEX
  5
CE
100
AcDbEntity
  8
CK_LEVEL_1
  6
CONTINUOUS
 62
         1
100
AcDbVertex
100
AcDb3dPolylineVertex
 10
5724.802052984
 20
-5841.0434100198
 30
59.9826950139
 70
        32
  0
VERTEX
  5
D0
100
AcDbEntity
  8
CK_LEVEL_1
  6
CONTINUOUS
 62
         1
100
AcDbVertex
100
AcDb3dPolylineVertex
 10
5724.7194368133
 20
-5840.9547903428
 30
59.3880528184
 70
        32
  0
VERTEX
  5
D2
100
AcDbEntity
  8
CK_LEVEL_1
  6
CONTINUOUS
 62
         1
100
AcDbVertex
100
AcDb3dPolylineVertex
 10
5724.6631430259
 20
-5840.8934550025
 30
58.8332671846
 70
        32
  0
VERTEX
  5
D4
100
AcDbEntity
  8
CK_LEVEL_1
  6
CONTINUOUS
 62
         1
100
AcDbVertex
100
AcDb3dPolylineVertex
 10
5724.6279409359
 20
-5840.8542445089
 30
58.3170092252
 70
        32
  0
VERTEX
  5
D6
100
AcDbEntity
  8
CK_LEVEL_1
  6
CONTINUOUS
 62
         1
100
AcDbVertex
100
AcDb3dPolylineVertex
 10
5724.6063790514
 20
-5840.8288988779
 30
57.6775202746
 70
        32
  0
VERTEX
  5
D8
100
AcDbEntity
  8
CK_LEVEL_1
  6
CONTINUOUS
 62
         1
100
AcDbVertex
100
AcDb3dPolylineVertex
 10
5724.6071595851
 20
-5840.8276484161
 30
57.1006294016
 70
        32
  0
VERTEX
  5
DA
100
AcDbEntity
  8
CK_LEVEL_1
  6
CONTINUOUS
 62
         1
100
AcDbVertex
100
AcDb3dPolylineVertex
 10
5724.6238463986
 20
-5840.8438462267
 30
56.5813505866
 70
        32
  0
VERTEX
  5
DC
100
AcDbEntity
  8
CK_LEVEL_1
  6
CONTINUOUS
 62
         1
100
AcDbVertex
100
AcDb3dPolylineVertex
 10
5724.6634060117
 20
-5840.8847723516
 30
55.9593661706
 70
        32
  0
VERTEX
  5
DE
100
AcDbEntity
  8
CK_LEVEL_1
  6
CONTINUOUS
 62
         1
100
AcDbVertex
100
AcDb3dPolylineVertex
 10
5724.7145356872
 20
-5840.9390505376
 30
55.4224309165
 70
        32
  0
VERTEX
  5
E0
100
AcDbEntity
  8
CK_LEVEL_1
  6
CONTINUOUS
 62
         1
100
AcDbVertex
100
AcDb3dPolylineVertex
 10
5724.7926164588
 20
-5841.0233362701
 30
54.8057447369
 70
        32
  0
VERTEX
  5
E2
100
AcDbEntity
  8
CK_LEVEL_1
  6
CONTINUOUS
 62
         1
100
AcDbVertex
100
AcDb3dPolylineVertex
 10
5724.8717050745
 20
-5841.1098098943
 30
54.302755163
 70
        32
  0
VERTEX
  5
E4
100
AcDbEntity
  8
CK_LEVEL_1
  6
CONTINUOUS
 62
         1
100
AcDbVertex
100
AcDb3dPolylineVertex
 10
5724.9734625876
 20
-5841.2222636759
 30
53.7565951333
 70
        32
  0
VERTEX
  5
E6
100
AcDbEntity
  8
CK_LEVEL_1
  6
CONTINUOUS
 62
         1
100
AcDbVertex
100
AcDb3dPolylineVertex
 10
5725.0927213605
 20
-5841.3554342451
 30
53.2077822744
 70
        32
  0
VERTEX
  5
E8
100
AcDbEntity
  8
CK_LEVEL_1
  6
CONTINUOUS
 62
         1
100
AcDbVertex
100
AcDb3dPolylineVertex
 10
5725.2149382173
 20
-5841.4932117756
 30
52.7143141691
 70
        32
  0
VERTEX
  5
EA
100
AcDbEntity
  8
CK_LEVEL_1
  6
CONTINUOUS
 62
         1
100
AcDbVertex
100
AcDb3dPolylineVertex
 10
5725.3536480883
 20
-5841.6509876428
 30
52.2147885962
 70
        32
  0
VERTEX
  5
EC
100
AcDbEntity
  8
CK_LEVEL_1
  6
CONTINUOUS
 62
         1
100
AcDbVertex
100
AcDb3dPolylineVertex
 10
5725.4027779772
 20
-5841.7072010672
 30
52.0501639771
 70
        32
  0
VERTEX
  5
EE
100
AcDbEntity
  8
CK_LEVEL_1
  6
CONTINUOUS
 62
         1
100
AcDbVertex
100
AcDb3dPolylineVertex
 10
5725.564358997
 20
-5841.8943234736
 30
51.5400939467
 70
        32
  0
VERTEX
  5
F0
100
AcDbEntity
  8
CK_LEVEL_1
  6
CONTINUOUS
 62
         1
100
AcDbVertex
100
AcDb3dPolylineVertex
 10
5725.7770520613
 20
-5842.1467425133
 30
50.9243254103
 70
        32
  0
VERTEX
  5
F2
100
AcDbEntity
  8
CK_LEVEL_1
  6
CONTINUOUS
 62
         1
100
AcDbVertex
100
AcDb3dPolylineVertex
 10
5725.9797344464
 20
-5842.3939232388
 30
50.3829657723
 70
        32
  0
VERTEX
  5
F4
100
AcDbEntity
  8
CK_LEVEL_1
  6
CONTINUOUS
 62
         1
100
AcDbVertex
100
AcDb3dPolylineVertex
 10
5726.2351113963
 20
-5842.7149787608
 30
49.7497057958
 70
        32
  0
VERTEX
  5
F6
100
AcDbEntity
  8
CK_LEVEL_1
  6
CONTINUOUS
 62
         1
100
AcDbVertex
100
AcDb3dPolylineVertex
 10
5726.4654972991
 20
-5843.0142794409
 30
49.2156347042
 70
        32
  0
VERTEX
  5
F8
100
AcDbEntity
  8
CK_LEVEL_1
  6
CONTINUOUS
 62
         1
100
AcDbVertex
100
AcDb3dPolylineVertex
 10
5726.740160667
 20
-5843.3838695182
 30
48.6158939409
 70
        32
  0
VERTEX
  5
FA
100
AcDbEntity
  8
CK_LEVEL_1
  6
CONTINUOUS
 62
         1
100
AcDbVertex
100
AcDb3dPolylineVertex
 10
5726.9712224546
 20
-5843.7063278823
 30
48.1370510204
 70
        32
  0
VERTEX
  5
FC
100
AcDbEntity
  8
CK_LEVEL_1
  6
CONTINUOUS
 62
         1
100
AcDbVertex
100
AcDb3dPolylineVertex
 10
5727.2283409676
 20
-5844.078602198
 30
47.6271786686
 70
        32
  0
VERTEX
  5
FE
100
AcDbEntity
  8
CK_LEVEL_1
  6
CONTINUOUS
 62
         1
100
AcDbVertex
100
AcDb3dPolylineVertex
 10
5727.4922899558
 20
-5844.4769005557
 30
47.125004629
 70
        32
  0
VERTEX
  5
100
100
AcDbEntity
  8
CK_LEVEL_1
  6
CONTINUOUS
 62
         1
100
AcDbVertex
100
AcDb3dPolylineVertex
 10
5727.7335707203
 20
-5844.8568203801
 30
46.6818947912
 70
        32
  0
VERTEX
  5
102
100
AcDbEntity
  8
CK_LEVEL_1
  6
CONTINUOUS
 62
         1
100
AcDbVertex
100
AcDb3dPolylineVertex
 10
5727.9808097255
 20
-5845.2636485644
 30
46.241237955
 70
        32
  0
VERTEX
  5
104
100
AcDbEntity
  8
CK_LEVEL_1
  6
CONTINUOUS
 62
         1
100
AcDbVertex
100
AcDb3dPolylineVertex
 10
5728.0628087473
 20
-5845.4028691586
 30
46.0977206123
 70
        32
  0
VERTEX
  5
106
100
AcDbEntity
  8
CK_LEVEL_1
  6
CONTINUOUS
 62
         1
100
AcDbVertex
100
AcDb3dPolylineVertex
 10
5728.3256986295
 20
-5845.8654510978
 30
45.6455404695
 70
        32
  0
VERTEX
  5
108
100
AcDbEntity
  8
CK_LEVEL_1
  6
CONTINUOUS
 62
         1
100
AcDbVertex
100
AcDb3dPolylineVertex
 10
5728.5654449941
 20
-5846.3108100106
 30
45.2431032098
 70
        32
  0
VERTEX
  5
10A
100
AcDbEntity
  8
CK_LEVEL_1
  6
CONTINUOUS
 62
         1
100
AcDbVertex
100
AcDb3dPolylineVertex
 10
5728.8550650765
 20
-5846.8824285125
 30
44.7686580243
 70
        32
  0
VERTEX
  5
10C
100
AcDbEntity
  8
CK_LEVEL_1
  6
CONTINUOUS
 62
         1
100
AcDbVertex
100
AcDb3dPolylineVertex
 10
5729.1085264501
 20
-5847.4172210051
 30
44.3632452382
 70
        32
  0
VERTEX
  5
10E
100
AcDbEntity
  8
CK_LEVEL_1
  6
CONTINUOUS
 62
         1
100
AcDbVertex
100
AcDb3dPolylineVertex
 10
5729.3296286293
 20
-5847.9143942165
 30
44.0165918369
 70
        32
  0
VERTEX
  5
110
100
AcDbEntity
  8
CK_LEVEL_1
  6
CONTINUOUS
 62
         1
100
AcDbVertex
100
AcDb3dPolylineVertex
 10
5729.5847224302
 20
-5848.5300888313
 30
43.6242869511
 70
        32
  0
VERTEX
  5
112
100
AcDbEntity
  8
CK_LEVEL_1
  6
CONTINUOUS
 62
         1
100
AcDbVertex
100
AcDb3dPolylineVertex
 10
5729.795508154
 20
-5849.0798611031
 30
43.3059746225
 70
        32
  0
VERTEX
  5
114
100
AcDbEntity
  8
CK_LEVEL_1
  6
CONTINUOUS
 62
         1
100
AcDbVertex
100
AcDb3dPolylineVertex
 10
5729.9695363339
 20
-5849.5679925228
 30
43.0469602667
 70
        32
  0
VERTEX
  5
116
100
AcDbEntity
  8
CK_LEVEL_1
  6
CONTINUOUS
 62
         1
100
AcDbVertex
100
AcDb3dPolylineVertex
 10
5730.1596250856
 20
-5850.1450236331
 30
42.767764268
 70
        32
  0
VERTEX
  5
118
100
AcDbEntity
  8
CK_LEVEL_1
  6
CONTINUOUS
 62
         1
100
AcDbVertex
100
AcDb3dPolylineVertex
 10
5730.3531671615
 20
-5850.7929050804
 30
42.4872542436
 70
        32
  0
VERTEX
  5
11A
100
AcDbEntity
  8
CK_LEVEL_1
  6
CONTINUOUS
 62
         1
100
AcDbVertex
100
AcDb3dPolylineVertex
 10
5730.4894817898
 20
-5851.2974412899
 30
42.2917894385
 70
        32
  0
VERTEX
  5
11C
100
AcDbEntity
  8
CK_LEVEL_1
  6
CONTINUOUS
 62
         1
100
AcDbVertex
100
AcDb3dPolylineVertex
 10
5730.6173232864
 20
-5851.8193657992
 30
42.1098825713
 70
        32
  0
VERTEX
  5
11E
100
AcDbEntity
  8
CK_LEVEL_1
  6
CONTINUOUS
 62
         1
100
AcDbVertex
100
AcDb3dPolylineVertex
 10
5730.7570538618
 20
-5852.465152677
 30
41.9123294021
 70
        32
  0
VERTEX
  5
120
100
AcDbEntity
  8
CK_LEVEL_1
  6
CONTINUOUS
 62
         1
100
AcDbVertex
100
AcDb3dPolylineVertex
 10
5730.8531266315
 20
-5852.9757777357
 30
41.7769779699
 70
        32
  0
VERTEX
  5
122
100
AcDbEntity
  8
CK_LEVEL_1
  6
CONTINUOUS
 62
         1
100
AcDbVertex
100
AcDb3dPolylineVertex
 10
5730.9486825389
 20
-5853.573258266
 30
41.6420669156
 70
        32
  0
VERTEX
  5
124
100
AcDbEntity
  8
CK_LEVEL_1
  6
CONTINUOUS
 62
         1
100
AcDbVertex
100
AcDb3dPolylineVertex
 10
5731.0227833775
 20
-5854.1424092677
 30
41.5368326522
 70
        32
  0
VERTEX
  5
126
100
AcDbEntity
  8
CK_LEVEL_1
  6
CONTINUOUS
 62
         1
100
AcDbVertex
100
AcDb3dPolylineVertex
 10
5731.0785872709
 20
-5854.6833893534
 30
41.4570337699
 70
        32
  0
VERTEX
  5
128
100
AcDbEntity
  8
CK_LEVEL_1
  6
CONTINUOUS
 62
         1
100
AcDbVertex
100
AcDb3dPolylineVertex
 10
5731.1188306597
 20
-5855.196641889
 30
41.3989735274
 70
        32
  0
VERTEX
  5
12A
100
AcDbEntity
  8
CK_LEVEL_1
  6
CONTINUOUS
 62
         1
100
AcDbVertex
100
AcDb3dPolylineVertex
 10
5731.1525657985
 20
-5855.8451838131
 30
41.3495241069
 70
        32
  0
VERTEX
  5
12C
100
AcDbEntity
  8
CK_LEVEL_1
  6
CONTINUOUS
 62
         1
100
AcDbVertex
100
AcDb3dPolylineVertex
 10
5731.1672378353
 20
-5856.4466937919
 30
41.3270135684
 70
        32
  0
VERTEX
  5
12E
100
AcDbEntity
  8
CK_LEVEL_1
  6
CONTINUOUS
 62
         1
100
AcDbVertex
100
AcDb3dPolylineVertex
 10
5731.1668732918
 20
-5857.0035383146
 30
41.3258963367
 70
        32
  0
VERTEX
  5
130
100
AcDbEntity
  8
CK_LEVEL_1
  6
CONTINUOUS
 62
         1
100
AcDbVertex
100
AcDb3dPolylineVertex
 10
5731.1482615069
 20
-5857.6896628091
 30
41.3503679328
 70
        32
  0
VERTEX
  5
132
100
AcDbEntity
  8
CK_LEVEL_1
  6
CONTINUOUS
 62
         1
100
AcDbVertex
100
AcDb3dPolylineVertex
 10
5731.1146305596
 20
-5858.3053547165
 30
41.3965811019
 70
        32
  0
VERTEX
  5
134
100
AcDbEntity
  8
CK_LEVEL_1
  6
CONTINUOUS
 62
         1
100
AcDbVertex
100
AcDb3dPolylineVertex
 10
5731.0709094933
 20
-5858.8570350908
 30
41.4575852693
 70
        32
  0
VERTEX
  5
136
100
AcDbEntity
  8
CK_LEVEL_1
  6
CONTINUOUS
 62
         1
100
AcDbVertex
100
AcDb3dPolylineVertex
 10
5731.0018919815
 20
-5859.514812347
 30
41.5548433087
 70
        32
  0
VERTEX
  5
138
100
AcDbEntity
  8
CK_LEVEL_1
  6
CONTINUOUS
 62
         1
100
AcDbVertex
100
AcDb3dPolylineVertex
 10
5730.9277086994
 20
-5860.0800938543
 30
41.6601610879
 70
        32
  0
VERTEX
  5
13A
100
AcDbEntity
  8
CK_LEVEL_1
  6
CONTINUOUS
 62
         1
100
AcDbVertex
100
AcDb3dPolylineVertex
 10
5730.825659334
 20
-5860.7265083901
 30
41.8059400076
 70
        32
  0
VERTEX
  5
13C
100
AcDbEntity
  8
CK_LEVEL_1
  6
CONTINUOUS
 62
         1
100
AcDbVertex
100
AcDb3dPolylineVertex
 10
5730.7288646143
 20
-5861.2515573773
 30
41.9449511414
 70
        32
  0
VERTEX
  5
13E
100
AcDbEntity
  8
CK_LEVEL_1
  6
CONTINUOUS
 62
         1
100
AcDbVertex
100
AcDb3dPolylineVertex
 10
5730.6096186514
 20
-5861.819480918
 30
42.1170090435
 70
        32
  0
VERTEX
  5
140
100
AcDbEntity
  8
CK_LEVEL_1
  6
CONTINUOUS
 62
         1
100
AcDbVertex
100
AcDb3dPolylineVertex
 10
5730.4744750242
 20
-5862.3878887313
 30
42.31291941
 70
        32
  0
VERTEX
  5
142
100
AcDbEntity
  8
CK_LEVEL_1
  6
CONTINUOUS
 62
         1
100
AcDbVertex
100
AcDb3dPolylineVertex
 10
5730.3393094925
 20
-5862.8970345447
 30
42.5097133286
 70
        32
  0
VERTEX
  5
144
100
AcDbEntity
  8
CK_LEVEL_1
  6
CONTINUOUS
 62
         1
100
AcDbVertex
100
AcDb3dPolylineVertex
 10
5730.1886755891
 20
-5863.4105498079
 30
42.7299295273
 70
        32
  0
VERTEX
  5
146
100
AcDbEntity
  8
CK_LEVEL_1
  6
CONTINUOUS
 62
         1
100
AcDbVertex
100
AcDb3dPolylineVertex
 10
5730.1358596486
 20
-5863.5793670251
 30
42.8073523071
 70
        32
  0
VERTEX
  5
148
100
AcDbEntity
  8
CK_LEVEL_1
  6
CONTINUOUS
 62
         1
100
AcDbVertex
100
AcDb3dPolylineVertex
 10
5729.923030383
 20
-5864.2151503104
 30
43.1209692725
 70
        32
  0
VERTEX
  5
14A
100
AcDbEntity
  8
CK_LEVEL_1
  6
CONTINUOUS
 62
         1
100
AcDbVertex
100
AcDb3dPolylineVertex
 10
5729.713063969
 20
-5864.7870599384
 30
43.4338313792
 70
        32
  0
VERTEX
  5
14C
100
AcDbEntity
  8
CK_LEVEL_1
  6
CONTINUOUS
 62
         1
100
AcDbVertex
100
AcDb3dPolylineVertex
 10
5729.5088708546
 20
-5865.3018560005
 30
43.7421621787
 70
        32
  0
VERTEX
  5
14E
100
AcDbEntity
  8
CK_LEVEL_1
  6
CONTINUOUS
 62
         1
100
AcDbVertex
100
AcDb3dPolylineVertex
 10
5729.3124345559
 20
-5865.7655839539
 30
44.043135271
 70
        32
  0
VERTEX
  5
150
100
AcDbEntity
  8
CK_LEVEL_1
  6
CONTINUOUS
 62
         1
100
AcDbVertex
100
AcDb3dPolylineVertex
 10
5729.0614740963
 20
-5866.320641105
 30
44.4346254725
 70
        32
  0
VERTEX
  5
152
100
AcDbEntity
  8
CK_LEVEL_1
  6
CONTINUOUS
 62
         1
100
AcDbVertex
100
AcDb3dPolylineVertex
 10
5728.8286637988
 20
-5866.8038741228
 30
44.8055628189
 70
        32
  0
VERTEX
  5
154
100
AcDbEntity
  8
CK_LEVEL_1
  6
CONTINUOUS
 62
         1
100
AcDbVertex
100
AcDb3dPolylineVertex
 10
5728.5423252703
 20
-5867.3628438314
 30
45.2731831375
 70
        32
  0
VERTEX
  5
156
100
AcDbEntity
  8
CK_LEVEL_1
  6
CONTINUOUS
 62
         1
100
AcDbVertex
100
AcDb3dPolylineVertex
 10
5728.289514939
 20
-5867.8283747955
 30
45.6976275528
 70
        32
  0
VERTEX
  5
158
100
AcDbEntity
  8
CK_LEVEL_1
  6
CONTINUOUS
 62
         1
100
AcDbVertex
100
AcDb3dPolylineVertex
 10
5727.9938240886
 20
-5868.3439202027
 30
46.2094606118
 70
        32
  0
VERTEX
  5
15A
100
AcDbEntity
  8
CK_LEVEL_1
  6
CONTINUOUS
 62
         1
100
AcDbVertex
100
AcDb3dPolylineVertex
 10
5727.7492368388
 20
-5868.7493891595
 30
46.6468177922
 70
        32
  0
VERTEX
  5
15C
100
AcDbEntity
  8
CK_LEVEL_1
  6
CONTINUOUS
 62
         1
100
AcDbVertex
100
AcDb3dPolylineVertex
 10
5727.48102382
 20
-5869.1743754518
 30
47.1427678747
 70
        32
  0
VERTEX
  5
15E
100
AcDbEntity
  8
CK_LEVEL_1
  6
CONTINUOUS
 62
         1
100
AcDbVertex
100
AcDb3dPolylineVertex
 10
5727.20961937
 20
-5869.5852798798
 30
47.6642543454
 70
        32
  0
VERTEX
  5
160
100
AcDbEntity
  8
CK_LEVEL_1
  6
CONTINUOUS
 62
         1
100
AcDbVertex
100
AcDb3dPolylineVertex
 10
5726.9647517361
 20
-5869.9407176774
 30
48.1540457035
 70
        32
  0
VERTEX
  5
162
100
AcDbEntity
  8
CK_LEVEL_1
  6
CONTINUOUS
 62
         1
100
AcDbVertex
100
AcDb3dPolylineVertex
 10
5726.7168650585
 20
-5870.2866761535
 30
48.6712642495
 70
        32
  0
VERTEX
  5
164
100
AcDbEntity
  8
CK_LEVEL_1
  6
CONTINUOUS
 62
         1
100
AcDbVertex
100
AcDb3dPolylineVertex
 10
5726.6353091141
 20
-5870.397570068
 30
48.8466872714
 70
        32
  0
VERTEX
  5
166
100
AcDbEntity
  8
CK_LEVEL_1
  6
CONTINUOUS
 62
         1
100
AcDbVertex
100
AcDb3dPolylineVertex
 10
5726.3727656944
 20
-5870.7455771231
 30
49.433102717
 70
        32
  0
VERTEX
  5
168
100
AcDbEntity
  8
CK_LEVEL_1
  6
CONTINUOUS
 62
         1
100
AcDbVertex
100
AcDb3dPolylineVertex
 10
5726.1518877204
 20
-5871.0285674773
 30
49.9568807348
 70
        32
  0
VERTEX
  5
16A
100
AcDbEntity
  8
CK_LEVEL_1
  6
CONTINUOUS
 62
         1
100
AcDbVertex
100
AcDb3dPolylineVertex
 10
5725.9067159367
 20
-5871.3330060022
 30
50.5787832078
 70
        32
  0
VERTEX
  5
16C
100
AcDbEntity
  8
CK_LEVEL_1
  6
CONTINUOUS
 62
         1
100
AcDbVertex
100
AcDb3dPolylineVertex
 10
5725.7150078386
 20
-5871.5643892472
 30
51.1024507515
 70
        32
  0
VERTEX
  5
16E
100
AcDbEntity
  8
CK_LEVEL_1
  6
CONTINUOUS
 62
         1
100
AcDbVertex
100
AcDb3dPolylineVertex
 10
5725.5169495873
 20
-5871.7975973663
 30
51.6882596827
 70
        32
  0
VERTEX
  5
170
100
AcDbEntity
  8
CK_LEVEL_1
  6
CONTINUOUS
 62
         1
100
AcDbVertex
100
AcDb3dPolylineVertex
 10
5725.3304193095
 20
-5872.0120116177
 30
52.2956072451
 70
        32
  0
VERTEX
  5
172
100
AcDbEntity
  8
CK_LEVEL_1
  6
CONTINUOUS
 62
         1
100
AcDbVertex
100
AcDb3dPolylineVertex
 10
5725.1751945224
 20
-5872.1866986824
 30
52.858425322
 70
        32
  0
VERTEX
  5
174
100
AcDbEntity
  8
CK_LEVEL_1
  6
CONTINUOUS
 62
         1
100
AcDbVertex
100
AcDb3dPolylineVertex
 10
5725.0320360836
 20
-5872.3448754105
 30
53.4451238084
 70
        32
  0
VERTEX
  5
176
100
AcDbEntity
  8
CK_LEVEL_1
  6
CONTINUOUS
 62
         1
100
AcDbVertex
100
AcDb3dPolylineVertex
 10
5724.9882931689
 20
-5872.3926606719
 30
53.6423866799
 70
        32
  0
VERTEX
  5
178
100
AcDbEntity
  8
CK_LEVEL_1
  6
CONTINUOUS
 62
         1
100
AcDbVertex
100
AcDb3dPolylineVertex
 10
5724.8840218327
 20
-5872.505900361
 30
54.1637427649
 70
        32
  0
VERTEX
  5
17A
100
AcDbEntity
  8
CK_LEVEL_1
  6
CONTINUOUS
 62
         1
100
AcDbVertex
100
AcDb3dPolylineVertex
 10
5724.7791845572
 20
-5872.6189067237
 30
54.7980604016
 70
        32
  0
VERTEX
  5
17C
100
AcDbEntity
  8
CK_LEVEL_1
  6
CONTINUOUS
 62
         1
100
AcDbVertex
100
AcDb3dPolylineVertex
 10
5724.7066399285
 20
-5872.6964638447
 30
55.3539233803
 70
        32
  0
VERTEX
  5
17E
100
AcDbEntity
  8
CK_LEVEL_1
  6
CONTINUOUS
 62
         1
100
AcDbVertex
100
AcDb3dPolylineVertex
 10
5724.6444889589
 20
-5872.7622875768
 30
56.0014640212
 70
        32
  0
VERTEX
  5
180
100
AcDbEntity
  8
CK_LEVEL_1
  6
CONTINUOUS
 62
         1
100
AcDbVertex
100
AcDb3dPolylineVertex
 10
5724.611176184
 20
-5872.7971221478
 30
56.5366239755
 70
        32
  0
VERTEX
  5
182
100
AcDbEntity
  8
CK_LEVEL_1
  6
CONTINUOUS
 62
         1
100
AcDbVertex
100
AcDb3dPolylineVertex
 10
5724.5934922099
 20
-5872.8151358751
 30
57.1246715221
 70
        32
  0
VERTEX
  5
184
100
AcDbEntity
  8
CK_LEVEL_1
  6
CONTINUOUS
 62
         1
100
AcDbVertex
100
AcDb3dPolylineVertex
 10
5724.5961211143
 20
-5872.8116292213
 30
57.7227449061
 70
        32
  0
VERTEX
  5
186
100
AcDbEntity
  8
CK_LEVEL_1
  6
CONTINUOUS
 62
         1
100
AcDbVertex
100
AcDb3dPolylineVertex
 10
5724.6169933424
 20
-5872.789087461
 30
58.2665732719
 70
        32
  0
VERTEX
  5
188
100
AcDbEntity
  8
CK_LEVEL_1
  6
CONTINUOUS
 62
         1
100
AcDbVertex
100
AcDb3dPolylineVertex
 10
5724.6571683116
 20
-5872.7465242295
 30
58.8229016952
 70
        32
  0
VERTEX
  5
18A
100
AcDbEntity
  8
CK_LEVEL_1
  6
CONTINUOUS
 62
         1
100
AcDbVertex
100
AcDb3dPolylineVertex
 10
5724.6748394306
 20
-5872.7279383275
 30
59.0075312088
 70
        32
  0
VERTEX
  5
18C
100
AcDbEntity
  8
CK_LEVEL_1
  6
CONTINUOUS
 62
         1
100
AcDbVertex
100
AcDb3dPolylineVertex
 10
5724.739313561
 20
-5872.6601697498
 30
59.5519589913
 70
        32
  0
VERTEX
  5
18E
100
AcDbEntity
  8
CK_LEVEL_1
  6
CONTINUOUS
 62
         1
100
AcDbVertex
100
AcDb3dPolylineVertex
 10
5724.8141859523
 20
-5872.5809792564
 30
60.051448096
 70
        32
  0
VERTEX
  5
190
100
AcDbEntity
  8
CK_LEVEL_1
  6
CONTINUOUS
 62
         1
100
AcDbVertex
100
AcDb3dPolylineVertex
 10
5724.9254053627
 20
-5872.4619846426
 30
60.6613721548
 70
        32
  0
VERTEX
  5
192
100
AcDbEntity
  8
CK_LEVEL_1
  6
CONTINUOUS
 62
         1
100
AcDbVertex
100
AcDb3dPolylineVertex
 10
5725.042100194
 20
-5872.3352484882
 30
61.2038670731
 70
        32
  0
VERTEX
  5
194
100
AcDbEntity
  8
CK_LEVEL_1
  6
CONTINUOUS
 62
         1
100
AcDbVertex
100
AcDb3dPolylineVertex
 10
5725.2012057523
 20
-5872.1592835009
 30
61.8459246804
 70
        32
  0
VERTEX
  5
196
100
AcDbEntity
  8
CK_LEVEL_1
  6
CONTINUOUS
 62
         1
100
AcDbVertex
100
AcDb3dPolylineVertex
 10
5725.3544660386
 20
-5871.9863024364
 30
62.393695672
 70
        32
  0
VERTEX
  5
198
100
AcDbEntity
  8
CK_LEVEL_1
  6
CONTINUOUS
 62
         1
100
AcDbVertex
100
AcDb3dPolylineVertex
 10
5725.5475543711
 20
-5871.7634549223
 30
63.0156970457
 70
        32
  0
VERTEX
  5
19A
100
AcDbEntity
  8
CK_LEVEL_1
  6
CONTINUOUS
 62
         1
100
AcDbVertex
100
AcDb3dPolylineVertex
 10
5725.7177991471
 20
-5871.5623454971
 30
63.5175565268
 70
        32
  0
VERTEX
  5
19C
100
AcDbEntity
  8
CK_LEVEL_1
  6
CONTINUOUS
 62
         1
100
AcDbVertex
100
AcDb3dPolylineVertex
 10
5725.9149289848
 20
-5871.3239092398
 30
64.0570768028
 70
        32
  0
VERTEX
  5
19E
100
AcDbEntity
  8
CK_LEVEL_1
  6
CONTINUOUS
 62
         1
100
AcDbVertex
100
AcDb3dPolylineVertex
 10
5726.1252355917
 20
-5871.0627010004
 30
64.5936551067
 70
        32
  0
VERTEX
  5
1A0
100
AcDbEntity
  8
CK_LEVEL_1
  6
CONTINUOUS
 62
         1
100
AcDbVertex
100
AcDb3dPolylineVertex
 10
5726.3919712249
 20
-5870.7207102681
 30
65.2281834829
 70
        32
  0
VERTEX
  5
1A2
100
AcDbEntity
  8
CK_LEVEL_1
  6
CONTINUOUS
 62
         1
100
AcDbVertex
100
AcDb3dPolylineVertex
 10
5726.6062432616
 20
-5870.4367559886
 30
65.7075034184
 70
        32
  0
VERTEX
  5
1A4
100
AcDbEntity
  8
CK_LEVEL_1
  6
CONTINUOUS
 62
         1
100
AcDbVertex
100
AcDb3dPolylineVertex
 10
5726.8267548491
 20
-5870.1351685584
 30
66.1780173836
 70
        32
  0
VERTEX
  5
1A6
100
AcDbEntity
  8
CK_LEVEL_1
  6
CONTINUOUS
 62
         1
100
AcDbVertex
100
AcDb3dPolylineVertex
 10
5727.0508892016
 20
-5869.8181501147
 30
66.636662075
 70
        32
  0
VERTEX
  5
1A8
100
AcDbEntity
  8
CK_LEVEL_1
  6
CONTINUOUS
 62
         1
100
AcDbVertex
100
AcDb3dPolylineVertex
 10
5727.2776568727
 20
-5869.4859655426
 30
67.0831721328
 70
        32
  0
VERTEX
  5
1AA
100
AcDbEntity
  8
CK_LEVEL_1
  6
CONTINUOUS
 62
         1
100
AcDbVertex
100
AcDb3dPolylineVertex
 10
5727.5060684161
 20
-5869.1388797272
 30
67.5172821971
 70
        32
  0
VERTEX
  5
1AC
100
AcDbEntity
  8
CK_LEVEL_1
  6
CONTINUOUS
 62
         1
100
AcDbVertex
100
AcDb3dPolylineVertex
 10
5727.7351343854
 20
-5868.7771575534
 30
67.9387269078
 70
        32
  0
VERTEX
  5
1AE
100
AcDbEntity
  8
CK_LEVEL_1
  6
CONTINUOUS
 62
         1
100
AcDbVertex
100
AcDb3dPolylineVertex
 10
5727.9638653342
 20
-5868.4010639064
 30
68.3472409052
 70
        32
  0
VERTEX
  5
1B0
100
AcDbEntity
  8
CK_LEVEL_1
  6
CONTINUOUS
 62
         1
100
AcDbVertex
100
AcDb3dPolylineVertex
 10
5728.1912718162
 20
-5868.0108636711
 30
68.7425588292
 70
        32
  0
VERTEX
  5
1B2
100
AcDbEntity
  8
CK_LEVEL_1
  6
CONTINUOUS
 62
         1
100
AcDbVertex
100
AcDb3dPolylineVertex
 10
5728.416364385
 20
-5867.6068217328
 30
69.12441532
 70
        32
  0
VERTEX
  5
1B4
100
AcDbEntity
  8
CK_LEVEL_1
  6
CONTINUOUS
 62
         1
100
AcDbVertex
100
AcDb3dPolylineVertex
 10
5728.6381535941
 20
-5867.1892029763
 30
69.4925450177
 70
        32
  0
SEQEND
  5
1B6
100
AcDbEntity
  8
CK_LEVEL_1
  6
CONTINUOUS
 62
         1
  0
ARC
  5
1B7
100
AcDbEntity
  8
CK_LEVEL_1
  6
CONTINUOUS
 62
         1
100
AcDbCircle
 10
-7689.123638879
 20
1794.5251300744
 30
-2216.9033804453
 40
1.5
210
0.3392682884386307
220
0.7163260593561834
230
0.6097327325535049
100
AcDbArc
 50
286.1078326063
 51
360.0000000031
  0
CIRCLE
  5
1B8
100
AcDbEntity
  8
CK_LEVEL_1
  6
CONTINUOUS
 62
         1
100
AcDbCircle
 10
5704.6885310423
 20
-5856.8183823118
 30
85.3087000275
 40
23.0
  0
CIRCLE
  5
1B9
100
AcDbEntity
  8
CK_LEVEL_1
  6
CONTINUOUS
 62
         1
100
AcDbCircle
 10
5704.6885310423
 20
-5856.8183823118
 30
-31.6912999725
 40
23.0
  0
ARC
  5
1BA
100
AcDbEntity
  8
CK_LEVEL_1
  6
CONTINUOUS
 62
         1
100
AcDbCircle
 10
-5680.1885310423
 20
-33.1912999725
 30
-5856.8183823118
 40
0.5
210
0.0
220
1.0
230
0.0
100
AcDbArc
 50
270.0
 51
360.0
  0
ARC
  5
1BB
100
AcDbEntity
  8
CK_LEVEL_1
  6
CONTINUOUS
 62
         1
100
AcDbCircle
 10
5881.3183823118
 20
-33.1912999725
 30
-5704.6885310423
 40
0.5
210
-1.0
220
0.0
230
0.0
100
AcDbArc
 50
270.0
 51
360.0
  0
ARC
  5
1BC
100
AcDbEntity
  8
CK_LEVEL_1
  6
CONTINUOUS
 62
         1
100
AcDbCircle
 10
5729.1885310423
 20
-33.1912999725
 30
5856.8183823118
 40
0.5
210
0.0
220
-1.0
230
0.0
100
AcDbArc
 50
270.0
 51
360.0
  0
ARC
  5
1BD
100
AcDbEntity
  8
CK_LEVEL_1
  6
CONTINUOUS
 62
         1
100
AcDbCircle
 10
-5832.3183823118
 20
-33.1912999725
 30
5704.6885310423
 40
0.5
210
1.0
220
0.0
230
0.0
100
AcDbArc
 50
270.0
 51
360.0
  0
CIRCLE
  5
1BE
100
AcDbEntity
  8
CK_LEVEL_1
  6
CONTINUOUS
 62
         1
100
AcDbCircle
 10
5704.6885310423
 20
-5856.8183823118
 30
-33.5448533631
 40
24.8535533906
  0
LINE
  5
1BF
100
AcDbEntity
  8
CK_LEVEL_1
  6
CONTINUOUS
 62
         1
100
AcDbLine
 10
5704.6885310423
 20
-5831.8183823118
 30
-33.1912999725
 11
5704.6885310423
 21
-5831.8183823118
 31
85.3087000275
  0
LINE
  5
1C0
100
AcDbEntity
  8
CK_LEVEL_1
  6
CONTINUOUS
 62
         1
100
AcDbLine
 10
5679.6885310423
 20
-5856.8183823118
 30
-33.1912999725
 11
5679.6885310423
 21
-5856.8183823118
 31
85.3087000275
  0
LINE
  5
1C1
100
AcDbEntity
  8
CK_LEVEL_1
  6
CONTINUOUS
 62
         1
100
AcDbLine
 10
5704.6885310423
 20
-5881.8183823118
 30
-33.1912999725
 11
5704.6885310423
 21
-5881.8183823118
 31
85.3087000275
  0
LINE
  5
1C2
100
AcDbEntity
  8
CK_LEVEL_1
  6
CONTINUOUS
 62
         1
100
AcDbLine
 10
5729.6885310423
 20
-5856.8183823118
 30
-33.1912999725
 11
5729.6885310423
 21
-5856.8183823118
 31
39.8087000275
  0
LINE
  5
1C3
100
AcDbEntity
  8
CK_LEVEL_1
  6
CONTINUOUS
 62
         1
100
AcDbLine
 10
5729.6885310423
 20
-5856.8183823118
 30
74.8087000275
 11
5729.6885310423
 21
-5856.8183823118
 31
85.3087000275
  0
ARC
  5
1C4
100
AcDbEntity
  8
CK_LEVEL_1
  6
CONTINUOUS
 62
         1
100
AcDbCircle
 10
5752.1885310423
 20
33.8087000275
 30
5856.8183823118
 40
1.5
210
0.0
220
-1.0
230
0.0
100
AcDbArc
 50
270.0
 51
360.0
  0
ARC
  5
1C5
100
AcDbEntity
  8
CK_LEVEL_1
  6
CONTINUOUS
 62
         1
100
AcDbCircle
 10
-5752.1885310423
 20
-5833.3183823118
 30
-57.3087000275
 40
1.5
210
0.0
220
0.0
230
-1.0
100
AcDbArc
 50
90.0
 51
180.0
  0
ARC
  5
1C6
100
AcDbEntity
  8
CK_LEVEL_1
  6
CONTINUOUS
 62
         1
100
AcDbCircle
 10
-5752.1885310423
 20
80.8087000275
 30
-5856.8183823118
 40
1.5
210
0.0
220
1.0
230
0.0
100
AcDbArc
 50
90.0
 51
180.0
  0
ARC
  5
1C7
100
AcDbEntity
  8
CK_LEVEL_1
  6
CONTINUOUS
 62
         1
100
AcDbCircle
 10
5752.1885310423
 20
-5880.3183823118
 30
57.3087000275
 40
1.5
100
AcDbArc
 50
270.0
 51
360.0
  0
CIRCLE
  5
1C8
100
AcDbEntity
  8
CK_LEVEL_1
  6
CONTINUOUS
 62
         1
100
AcDbCircle
 10
-5856.8183823118
 20
57.3087000275
 30
5753.2491912141
 40
24.5606601718
210
1.0
220
0.0
230
0.0
  0
LINE
  5
1C9
100
AcDbEntity
  8
CK_LEVEL_1
  6
CONTINUOUS
 62
         1
100
AcDbLine
 10
5744.1885310423
 20
-5831.8183823118
 30
57.3087000275
 11
5752.1885310423
 21
-5831.8183823118
 31
57.3087000275
  0
LINE
  5
1CA
100
AcDbEntity
  8
CK_LEVEL_1
  6
CONTINUOUS
 62
         1
100
AcDbLine
 10
5744.1885310423
 20
-5856.8183823118
 30
82.3087000275
 11
5752.1885310423
 21
-5856.8183823118
 31
82.3087000275
  0
LINE
  5
1CB
100
AcDbEntity
  8
CK_LEVEL_1
  6
CONTINUOUS
 62
         1
100
AcDbLine
 10
5744.1885310423
 20
-5881.8183823118
 30
57.3087000275
 11
5752.1885310423
 21
-5881.8183823118
 31
57.3087000275
  0
LINE
  5
1CC
100
AcDbEntity
  8
CK_LEVEL_1
  6
CONTINUOUS
 62
         1
100
AcDbLine
 10
5744.1885310423
 20
-5856.8183823118
 30
32.3087000275
 11
5752.1885310423
 21
-5856.8183823118
 31
32.3087000275
  0
ARC
  5
1CD
100
AcDbEntity
  8
CK_LEVEL_1
  6
CONTINUOUS
 62
         1
100
AcDbCircle
 10
5744.1885310423
 20
33.8087000275
 30
5856.8183823118
 40
1.5
210
0.0
220
-1.0
230
0.0
100
AcDbArc
 50
180.0
 51
270.0
  0
ARC
  5
1CE
100
AcDbEntity
  8
CK_LEVEL_1
  6
CONTINUOUS
 62
         1
100
AcDbCircle
 10
-5744.1885310423
 20
-5833.3183823118
 30
-57.3087000275
 40
1.5
210
0.0
220
0.0
230
-1.0
100
AcDbArc
 50
0.0
 51
90.0
  0
ARC
  5
1CF
100
AcDbEntity
  8
CK_LEVEL_1
  6
CONTINUOUS
 62
         1
100
AcDbCircle
 10
-5744.1885310423
 20
80.8087000275
 30
-5856.8183823118
 40
1.5
210
0.0
220
1.0
230
0.0
100
AcDbArc
 50
0.0
 51
90.0
  0
ARC
  5
1D0
100
AcDbEntity
  8
CK_LEVEL_1
  6
CONTINUOUS
 62
         1
100
AcDbCircle
 10
5744.1885310423
 20
-5880.3183823118
 30
57.3087000275
 40
1.5
100
AcDbArc
 50
180.0
 51
270.0
  0
CIRCLE
  5
1D1
100
AcDbEntity
  8
CK_LEVEL_1
  6
CONTINUOUS
 62
         1
100
AcDbCircle
 10
-5856.8183823118
 20
57.3087000275
 30
5743.1278708706
 40
24.5606601718
210
1.0
220
0.0
230
0.0
  0
ARC
  5
1D2
100
AcDbEntity
  8
CK_LEVEL_1
  6
CONTINUOUS
 62
         1
100
AcDbCircle
 10
5741.1885310423
 20
39.8087000275
 30
5856.8183823118
 40
1.5
210
0.0
220
-1.0
230
0.0
100
AcDbArc
 50
0.0
 51
90.0
  0
ARC
  5
1D3
100
AcDbEntity
  8
CK_LEVEL_1
  6
CONTINUOUS
 62
         1
100
AcDbCircle
 10
-5741.1885310423
 20
-5839.3183823118
 30
-57.3087000275
 40
1.5
210
0.0
220
0.0
230
-1.0
100
AcDbArc
 50
180.0
 51
270.0
  0
ARC
  5
1D4
100
AcDbEntity
  8
CK_LEVEL_1
  6
CONTINUOUS
 62
         1
100
AcDbCircle
 10
-5741.1885310423
 20
74.8087000275
 30
-5856.8183823118
 40
1.5
210
0.0
220
1.0
230
0.0
100
AcDbArc
 50
180.0
 51
270.0
  0
ARC
  5
1D5
100
AcDbEntity
  8
CK_LEVEL_1
  6
CONTINUOUS
 62
         1
100
AcDbCircle
 10
5741.1885310423
 20
-5874.3183823118
 30
57.3087000275
 40
1.5
100
AcDbArc
 50
0.0
 51
90.0
  0
CIRCLE
  5
1D6
100
AcDbEntity
  8
CK_LEVEL_1
  6
CONTINUOUS
 62
         1
100
AcDbCircle
 10
-5856.8183823118
 20
57.3087000275
 30
5742.2491912141
 40
16.4393398282
210
1.0
220
0.0
230
0.0
  0
LINE
  5
1D7
100
AcDbEntity
  8
CK_LEVEL_1
  6
CONTINUOUS
 62
         1
100
AcDbLine
 10
5724.5882797845
 20
-5840.8183823118
 30
57.3087000275
 11
5741.1885310423
 21
-5840.8183823118
 31
57.3087000275
  0
LINE
  5
1D8
100
AcDbEntity
  8
CK_LEVEL_1
  6
CONTINUOUS
 62
         1
100
AcDbLine
 10
5731.1885310423
 20
-5856.8183823118
 30
73.3087000275
 11
5741.1885310423
 21
-5856.8183823118
 31
73.3087000275
  0
LINE
  5
1D9
100
AcDbEntity
  8
CK_LEVEL_1
  6
CONTINUOUS
 62
         1
100
AcDbLine
 10
5724.5882797845
 20
-5872.8183823118
 30
57.3087000275
 11
5741.1885310423
 21
-5872.8183823118
 31
57.3087000275
  0
LINE
  5
1DA
100
AcDbEntity
  8
CK_LEVEL_1
  6
CONTINUOUS
 62
         1
100
AcDbLine
 10
5731.1885310423
 20
-5856.8183823118
 30
41.3087000275
 11
5741.1885310423
 21
-5856.8183823118
 31
41.3087000275
  0
LINE
  5
1DB
100
AcDbEntity
  8
CK_LEVEL_1
  6
CONTINUOUS
 62
         1
100
AcDbLine
 10
5704.6885310423
 20
-5833.8183823118
 30
-31.6912999725
 11
5704.6885310423
 21
-5833.8183823118
 31
85.3087000275
  0
LINE
  5
1DC
100
AcDbEntity
  8
CK_LEVEL_1
  6
CONTINUOUS
 62
         1
100
AcDbLine
 10
5681.6885310423
 20
-5856.8183823118
 30
-31.6912999725
 11
5681.6885310423
 21
-5856.8183823118
 31
85.3087000275
  0
LINE
  5
1DD
100
AcDbEntity
  8
CK_LEVEL_1
  6
CONTINUOUS
 62
         1
100
AcDbLine
 10
5704.6885310423
 20
-5879.8183823118
 30
-31.6912999725
 11
5704.6885310423
 21
-5879.8183823118
 31
85.3087000275
  0
LINE
  5
1DE
100
AcDbEntity
  8
CK_LEVEL_1
  6
CONTINUOUS
 62
         1
100
AcDbLine
 10
5727.6885310423
 20
-5856.8183823118
 30
-31.6912999725
 11
5727.6885310423
 21
-5856.8183823118
 31
85.3087000275
  0
CIRCLE
  5
1DF
100
AcDbEntity
  8
CK_LEVEL_1
  6
CONTINUOUS
 62
         1
100
AcDbCircle
 10
5704.6885310423
 20
-5856.8183823118
 30
-33.6912999725
 40
24.5
  0
CIRCLE
  5
1E0
100
AcDbEntity
  8
CK_LEVEL_1
  6
CONTINUOUS
 62
         1
100
AcDbCircle
 10
-5704.6885310423
 20
-5856.8183823118
 30
33.1912999725
 40
25.0
210
0.0
220
0.0
230
-1.0
  0
POLYLINE
  5
1E2
100
AcDbEntity
  8
CK_LEVEL_1
  6
CONTINUOUS
 62
         1
100
AcDb3dPolyline
 66
         1
 10
0.0
 20
0.0
 30
70.6347804855
 70
         8
  0
VERTEX
  5
1E4
100
AcDbEntity
  8
CK_LEVEL_1
  6
CONTINUOUS
 62
         1
100
AcDbVertex
100
AcDb3dPolylineVertex
 10
5727.2825145818
 20
-5867.5194059927
 30
70.6347804855
 70
        32
  0
VERTEX
  5
1E6
100
AcDbEntity
  8
CK_LEVEL_1
  6
CONTINUOUS
 62
         1
100
AcDbVertex
100
AcDb3dPolylineVertex
 10
5727.5271354291
 20
-5866.9863490786
 30
71.0954580838
 70
        32
  0
VERTEX
  5
1E8
100
AcDbEntity
  8
CK_LEVEL_1
  6
CONTINUOUS
 62
         1
100
AcDbVertex
100
AcDb3dPolylineVertex
 10
5727.7342918124
 20
-5866.5067782729
 30
71.4776684541
 70
        32
  0
VERTEX
  5
1EA
100
AcDbEntity
  8
CK_LEVEL_1
  6
CONTINUOUS
 62
         1
100
AcDbVertex
100
AcDb3dPolylineVertex
 10
5727.9666627856
 20
-5865.9334155314
 30
71.8984068935
 70
        32
  0
VERTEX
  5
1EC
100
AcDbEntity
  8
CK_LEVEL_1
  6
CONTINUOUS
 62
         1
100
AcDbVertex
100
AcDb3dPolylineVertex
 10
5728.151023419
 20
-5865.4474702254
 30
72.2265991316
 70
        32
  0
VERTEX
  5
1EE
100
AcDbEntity
  8
CK_LEVEL_1
  6
CONTINUOUS
 62
         1
100
AcDbVertex
100
AcDb3dPolylineVertex
 10
5728.3450801381
 20
-5864.9005978913
 30
72.5670289477
 70
        32
  0
VERTEX
  5
1F0
100
AcDbEntity
  8
CK_LEVEL_1
  6
CONTINUOUS
 62
         1
100
AcDbVertex
100
AcDb3dPolylineVertex
 10
5728.5326772033
 20
-5864.3301072065
 30
72.8915359721
 70
        32
  0
VERTEX
  5
1F2
100
AcDbEntity
  8
CK_LEVEL_1
  6
CONTINUOUS
 62
         1
100
AcDbVertex
100
AcDb3dPolylineVertex
 10
5728.6940839704
 20
-5863.798339008
 30
73.1673711803
 70
        32
  0
VERTEX
  5
1F4
100
AcDbEntity
  8
CK_LEVEL_1
  6
CONTINUOUS
 62
         1
100
AcDbVertex
100
AcDb3dPolylineVertex
 10
5728.8494559134
 20
-5863.2408903244
 30
73.430182112
 70
        32
  0
VERTEX
  5
1F6
100
AcDbEntity
  8
CK_LEVEL_1
  6
CONTINUOUS
 62
         1
100
AcDbVertex
100
AcDb3dPolylineVertex
 10
5728.8987066408
 20
-5863.0527545731
 30
73.5129769992
 70
        32
  0
VERTEX
  5
1F8
100
AcDbEntity
  8
CK_LEVEL_1
  6
CONTINUOUS
 62
         1
100
AcDbVertex
100
AcDb3dPolylineVertex
 10
5729.0444969256
 20
-5862.4534695635
 30
73.7570817536
 70
        32
  0
VERTEX
  5
1FA
100
AcDbEntity
  8
CK_LEVEL_1
  6
CONTINUOUS
 62
         1
100
AcDbVertex
100
AcDb3dPolylineVertex
 10
5729.166864097
 20
-5861.8886145047
 30
73.9609203055
 70
        32
  0
VERTEX
  5
1FC
100
AcDbEntity
  8
CK_LEVEL_1
  6
CONTINUOUS
 62
         1
100
AcDbVertex
100
AcDb3dPolylineVertex
 10
5729.2691223815
 20
-5861.3580566447
 30
74.1304457853
 70
        32
  0
VERTEX
  5
1FE
100
AcDbEntity
  8
CK_LEVEL_1
  6
CONTINUOUS
 62
         1
100
AcDbVertex
100
AcDb3dPolylineVertex
 10
5729.3804431816
 20
-5860.6942719116
 30
74.3140295042
 70
        32
  0
VERTEX
  5
200
100
AcDbEntity
  8
CK_LEVEL_1
  6
CONTINUOUS
 62
         1
100
AcDbVertex
100
AcDb3dPolylineVertex
 10
5729.4663410961
 20
-5860.0891698258
 30
74.4548698139
 70
        32
  0
VERTEX
  5
202
100
AcDbEntity
  8
CK_LEVEL_1
  6
CONTINUOUS
 62
         1
100
AcDbVertex
100
AcDb3dPolylineVertex
 10
5729.5318193492
 20
-5859.5393158435
 30
74.5616294298
 70
        32
  0
VERTEX
  5
204
100
AcDbEntity
  8
CK_LEVEL_1
  6
CONTINUOUS
 62
         1
100
AcDbVertex
100
AcDb3dPolylineVertex
 10
5729.5952869964
 20
-5858.8741002355
 30
74.6644348763
 70
        32
  0
VERTEX
  5
206
100
AcDbEntity
  8
CK_LEVEL_1
  6
CONTINUOUS
 62
         1
100
AcDbVertex
100
AcDb3dPolylineVertex
 10
5729.6366902987
 20
-5858.2938791495
 30
74.7309402772
 70
        32
  0
VERTEX
  5
208
100
AcDbEntity
  8
CK_LEVEL_1
  6
CONTINUOUS
 62
         1
100
AcDbVertex
100
AcDb3dPolylineVertex
 10
5729.6684743255
 20
-5857.6203853291
 30
74.7813485509
 70
        32
  0
VERTEX
  5
20A
100
AcDbEntity
  8
CK_LEVEL_1
  6
CONTINUOUS
 62
         1
100
AcDbVertex
100
AcDb3dPolylineVertex
 10
5729.681460085
 20
-5857.0651943024
 30
74.8013192118
 70
        32
  0
VERTEX
  5
20C
100
AcDbEntity
  8
CK_LEVEL_1
  6
CONTINUOUS
 62
         1
100
AcDbVertex
100
AcDb3dPolylineVertex
 10
5729.6818051863
 20
-5856.4560653473
 30
74.8006992361
 70
        32
  0
VERTEX
  5
20E
100
AcDbEntity
  8
CK_LEVEL_1
  6
CONTINUOUS
 62
         1
100
AcDbVertex
100
AcDb3dPolylineVertex
 10
5729.6669835444
 20
-5855.8369941207
 30
74.7756579234
 70
        32
  0
VERTEX
  5
210
100
AcDbEntity
  8
CK_LEVEL_1
  6
CONTINUOUS
 62
         1
100
AcDbVertex
100
AcDb3dPolylineVertex
 10
5729.6399011187
 20
-5855.2739759929
 30
74.7311523782
 70
        32
  0
VERTEX
  5
212
100
AcDbEntity
  8
CK_LEVEL_1
  6
CONTINUOUS
 62
         1
100
AcDbVertex
100
AcDb3dPolylineVertex
 10
5729.5983378733
 20
-5854.6974457293
 30
74.6636307193
 70
        32
  0
VERTEX
  5
214
100
AcDbEntity
  8
CK_LEVEL_1
  6
CONTINUOUS
 62
         1
100
AcDbVertex
100
AcDb3dPolylineVertex
 10
5729.5813499071
 20
-5854.5059011845
 30
74.6361773831
 70
        32
  0
VERTEX
  5
216
100
AcDbEntity
  8
CK_LEVEL_1
  6
CONTINUOUS
 62
         1
100
AcDbVertex
100
AcDb3dPolylineVertex
 10
5729.5257780808
 20
-5853.9728554262
 30
74.5466493648
 70
        32
  0
VERTEX
  5
218
100
AcDbEntity
  8
CK_LEVEL_1
  6
CONTINUOUS
 62
         1
100
AcDbVertex
100
AcDb3dPolylineVertex
 10
5729.4398273151
 20
-5853.3096311807
 30
74.4082075321
 70
        32
  0
VERTEX
  5
21A
100
AcDbEntity
  8
CK_LEVEL_1
  6
CONTINUOUS
 62
         1
100
AcDbVertex
100
AcDb3dPolylineVertex
 10
5729.345207474
 20
-5852.7042605142
 30
74.2551987971
 70
        32
  0
VERTEX
  5
21C
100
AcDbEntity
  8
CK_LEVEL_1
  6
CONTINUOUS
 62
         1
100
AcDbVertex
100
AcDb3dPolylineVertex
 10
5729.2454343506
 20
-5852.1517911221
 30
74.0928712939
 70
        32
  0
VERTEX
  5
21E
100
AcDbEntity
  8
CK_LEVEL_1
  6
CONTINUOUS
 62
         1
100
AcDbVertex
100
AcDb3dPolylineVertex
 10
5729.1070877445
 20
-5851.4810797547
 30
73.865888671
 70
        32
  0
VERTEX
  5
220
100
AcDbEntity
  8
CK_LEVEL_1
  6
CONTINUOUS
 62
         1
100
AcDbVertex
100
AcDb3dPolylineVertex
 10
5728.9690151243
 20
-5850.8882421181
 30
73.6370328908
 70
        32
  0
VERTEX
  5
222
100
AcDbEntity
  8
CK_LEVEL_1
  6
CONTINUOUS
 62
         1
100
AcDbVertex
100
AcDb3dPolylineVertex
 10
5728.8344778021
 20
-5850.3640200186
 30
73.4117385174
 70
        32
  0
VERTEX
  5
224
100
AcDbEntity
  8
CK_LEVEL_1
  6
CONTINUOUS
 62
         1
100
AcDbVertex
100
AcDb3dPolylineVertex
 10
5728.6610657602
 20
-5849.7473306976
 30
73.1179311988
 70
        32
  0
VERTEX
  5
226
100
AcDbEntity
  8
CK_LEVEL_1
  6
CONTINUOUS
 62
         1
100
AcDbVertex
100
AcDb3dPolylineVertex
 10
5728.5009809941
 20
-5849.2244258042
 30
72.8432296168
 70
        32
  0
VERTEX
  5
228
100
AcDbEntity
  8
CK_LEVEL_1
  6
CONTINUOUS
 62
         1
100
AcDbVertex
100
AcDb3dPolylineVertex
 10
5728.3055995297
 20
-5848.6342989622
 30
72.5033457284
 70
        32
  0
VERTEX
  5
22A
100
AcDbEntity
  8
CK_LEVEL_1
  6
CONTINUOUS
 62
         1
100
AcDbVertex
100
AcDb3dPolylineVertex
 10
5728.0797951296
 20
-5848.005725585
 30
72.104057308
 70
        32
  0
VERTEX
  5
22C
100
AcDbEntity
  8
CK_LEVEL_1
  6
CONTINUOUS
 62
         1
100
AcDbVertex
100
AcDb3dPolylineVertex
 10
5727.9001984759
 20
-5847.5397977756
 30
71.7813661014
 70
        32
  0
VERTEX
  5
22E
100
AcDbEntity
  8
CK_LEVEL_1
  6
CONTINUOUS
 62
         1
100
AcDbVertex
100
AcDb3dPolylineVertex
 10
5727.7117063198
 20
-5847.078513882
 30
71.4376561909
 70
        32
  0
VERTEX
  5
230
100
AcDbEntity
  8
CK_LEVEL_1
  6
CONTINUOUS
 62
         1
100
AcDbVertex
100
AcDb3dPolylineVertex
 10
5727.4756048043
 20
-5846.5356853333
 30
70.9995749885
 70
        32
  0
VERTEX
  5
232
100
AcDbEntity
  8
CK_LEVEL_1
  6
CONTINUOUS
 62
         1
100
AcDbVertex
100
AcDb3dPolylineVertex
 10
5727.2873240672
 20
-5846.127519212
 30
70.6439405325
 70
        32
  0
VERTEX
  5
234
100
AcDbEntity
  8
CK_LEVEL_1
  6
CONTINUOUS
 62
         1
100
AcDbVertex
100
AcDb3dPolylineVertex
 10
5727.0802889016
 20
-5845.7006708995
 30
70.2457266831
 70
        32
  0
VERTEX
  5
236
100
AcDbEntity
  8
CK_LEVEL_1
  6
CONTINUOUS
 62
         1
100
AcDbVertex
100
AcDb3dPolylineVertex
 10
5726.8274927894
 20
-5845.2060574642
 30
69.7476727452
 70
        32
  0
VERTEX
  5
238
100
AcDbEntity
  8
CK_LEVEL_1
  6
CONTINUOUS
 62
         1
100
AcDbVertex
100
AcDb3dPolylineVertex
 10
5726.6058514726
 20
-5844.7934691059
 30
69.2988870057
 70
        32
  0
VERTEX
  5
23A
100
AcDbEntity
  8
CK_LEVEL_1
  6
CONTINUOUS
 62
         1
100
AcDbVertex
100
AcDb3dPolylineVertex
 10
5726.348353896
 20
-5844.3359320992
 30
68.7612853417
 70
        32
  0
VERTEX
  5
23C
100
AcDbEntity
  8
CK_LEVEL_1
  6
CONTINUOUS
 62
         1
100
AcDbVertex
100
AcDb3dPolylineVertex
 10
5726.0663758894
 20
-5843.8588663543
 30
68.1495696534
 70
        32
  0
VERTEX
  5
23E
100
AcDbEntity
  8
CK_LEVEL_1
  6
CONTINUOUS
 62
         1
100
AcDbVertex
100
AcDb3dPolylineVertex
 10
5725.8528774954
 20
-5843.5127448024
 30
67.6679210884
 70
        32
  0
VERTEX
  5
240
100
AcDbEntity
  8
CK_LEVEL_1
  6
CONTINUOUS
 62
         1
100
AcDbVertex
100
AcDb3dPolylineVertex
 10
5725.6383257557
 20
-5843.1769877381
 30
67.1653234861
 70
        32
  0
VERTEX
  5
242
100
AcDbEntity
  8
CK_LEVEL_1
  6
CONTINUOUS
 62
         1
100
AcDbVertex
100
AcDb3dPolylineVertex
 10
5725.3826159941
 20
-5842.7916139691
 30
66.5379558463
 70
        32
  0
VERTEX
  5
244
100
AcDbEntity
  8
CK_LEVEL_1
  6
CONTINUOUS
 62
         1
100
AcDbVertex
100
AcDb3dPolylineVertex
 10
5725.1887113687
 20
-5842.5095526396
 30
66.0380303132
 70
        32
  0
VERTEX
  5
246
100
AcDbEntity
  8
CK_LEVEL_1
  6
CONTINUOUS
 62
         1
100
AcDbVertex
100
AcDb3dPolylineVertex
 10
5724.9930534561
 20
-5842.2332577611
 30
65.5076338399
 70
        32
  0
VERTEX
  5
248
100
AcDbEntity
  8
CK_LEVEL_1
  6
CONTINUOUS
 62
         1
100
AcDbVertex
100
AcDb3dPolylineVertex
 10
5724.7664675066
 20
-5841.9228794545
 30
64.8531410843
 70
        32
  0
VERTEX
  5
24A
100
AcDbEntity
  8
CK_LEVEL_1
  6
CONTINUOUS
 62
         1
100
AcDbVertex
100
AcDb3dPolylineVertex
 10
5724.5789683166
 20
-5841.6733571615
 30
64.2712232991
 70
        32
  0
VERTEX
  5
24C
100
AcDbEntity
  8
CK_LEVEL_1
  6
CONTINUOUS
 62
         1
100
AcDbVertex
100
AcDb3dPolylineVertex
 10
5724.3745630597
 20
-5841.4084878072
 30
63.5832471091
 70
        32
  0
VERTEX
  5
24E
100
AcDbEntity
  8
CK_LEVEL_1
  6
CONTINUOUS
 62
         1
100
AcDbVertex
100
AcDb3dPolylineVertex
 10
5724.2178586361
 20
-5841.2102836223
 30
63.0062342265
 70
        32
  0
VERTEX
  5
250
100
AcDbEntity
  8
CK_LEVEL_1
  6
CONTINUOUS
 62
         1
100
AcDbVertex
100
AcDb3dPolylineVertex
 10
5724.0594234346
 20
-5841.0140416843
 30
62.3630524877
 70
        32
  0
VERTEX
  5
252
100
AcDbEntity
  8
CK_LEVEL_1
  6
CONTINUOUS
 62
         1
100
AcDbVertex
100
AcDb3dPolylineVertex
 10
5723.9142356301
 20
-5840.8377857866
 30
61.69863043
 70
        32
  0
VERTEX
  5
254
100
AcDbEntity
  8
CK_LEVEL_1
  6
CONTINUOUS
 62
         1
100
AcDbVertex
100
AcDb3dPolylineVertex
 10
5723.7973487033
 20
-5840.6983070841
 30
61.0849901656
 70
        32
  0
VERTEX
  5
256
100
AcDbEntity
  8
CK_LEVEL_1
  6
CONTINUOUS
 62
         1
100
AcDbVertex
100
AcDb3dPolylineVertex
 10
5723.6939855007
 20
-5840.5766752462
 30
60.4473310028
 70
        32
  0
VERTEX
  5
258
100
AcDbEntity
  8
CK_LEVEL_1
  6
CONTINUOUS
 62
         1
100
AcDbVertex
100
AcDb3dPolylineVertex
 10
5723.663551742
 20
-5840.5411408549
 30
60.2333820439
 70
        32
  0
VERTEX
  5
25A
100
AcDbEntity
  8
CK_LEVEL_1
  6
CONTINUOUS
 62
         1
100
AcDbVertex
100
AcDb3dPolylineVertex
 10
5723.5856119583
 20
-5840.4496995608
 30
59.5829921426
 70
        32
  0
VERTEX
  5
25C
100
AcDbEntity
  8
CK_LEVEL_1
  6
CONTINUOUS
 62
         1
100
AcDbVertex
100
AcDb3dPolylineVertex
 10
5723.5325046117
 20
-5840.3864113264
 30
58.9761953556
 70
        32
  0
VERTEX
  5
25E
100
AcDbEntity
  8
CK_LEVEL_1
  6
CONTINUOUS
 62
         1
100
AcDbVertex
100
AcDb3dPolylineVertex
 10
5723.4992950928
 20
-5840.3459523855
 30
58.4115382125
 70
        32
  0
VERTEX
  5
260
100
AcDbEntity
  8
CK_LEVEL_1
  6
CONTINUOUS
 62
         1
100
AcDbVertex
100
AcDb3dPolylineVertex
 10
5723.4789536924
 20
-5840.3197997591
 30
57.7120971727
 70
        32
  0
VERTEX
  5
262
100
AcDbEntity
  8
CK_LEVEL_1
  6
CONTINUOUS
 62
         1
100
AcDbVertex
100
AcDb3dPolylineVertex
 10
5723.479690045
 20
-5840.3185094831
 30
57.0811227805
 70
        32
  0
VERTEX
  5
264
100
AcDbEntity
  8
CK_LEVEL_1
  6
CONTINUOUS
 62
         1
100
AcDbVertex
100
AcDb3dPolylineVertex
 10
5723.4954323218
 20
-5840.3352230259
 30
56.5131615766
 70
        32
  0
VERTEX
  5
266
100
AcDbEntity
  8
CK_LEVEL_1
  6
CONTINUOUS
 62
         1
100
AcDbVertex
100
AcDb3dPolylineVertex
 10
5723.5327527115
 20
-5840.3774522232
 30
55.8328661215
 70
        32
  0
VERTEX
  5
268
100
AcDbEntity
  8
CK_LEVEL_1
  6
CONTINUOUS
 62
         1
100
AcDbVertex
100
AcDb3dPolylineVertex
 10
5723.5809882545
 20
-5840.4334586061
 30
55.2455931874
 70
        32
  0
VERTEX
  5
26A
100
AcDbEntity
  8
CK_LEVEL_1
  6
CONTINUOUS
 62
         1
100
AcDbVertex
100
AcDb3dPolylineVertex
 10
5723.6546493597
 20
-5840.5204279645
 30
54.5710926784
 70
        32
  0
VERTEX
  5
26C
100
AcDbEntity
  8
CK_LEVEL_1
  6
CONTINUOUS
 62
         1
100
AcDbVertex
100
AcDb3dPolylineVertex
 10
5723.7292612613
 20
-5840.6096548763
 30
54.020947832
 70
        32
  0
VERTEX
  5
26E
100
AcDbEntity
  8
CK_LEVEL_1
  6
CONTINUOUS
 62
         1
100
AcDbVertex
100
AcDb3dPolylineVertex
 10
5723.8252589152
 20
-5840.7256891439
 30
53.4235852995
 70
        32
  0
VERTEX
  5
270
100
AcDbEntity
  8
CK_LEVEL_1
  6
CONTINUOUS
 62
         1
100
AcDbVertex
100
AcDb3dPolylineVertex
 10
5723.9377671916
 20
-5840.8630998137
 30
52.8233212351
 70
        32
  0
VERTEX
  5
272
100
AcDbEntity
  8
CK_LEVEL_1
  6
CONTINUOUS
 62
         1
100
AcDbVertex
100
AcDb3dPolylineVertex
 10
5724.0530661131
 20
-5841.0052641288
 30
52.2835904948
 70
        32
  0
VERTEX
  5
274
100
AcDbEntity
  8
CK_LEVEL_1
  6
CONTINUOUS
 62
         1
100
AcDbVertex
100
AcDb3dPolylineVertex
 10
5724.1839244819
 20
-5841.1680635201
 30
51.7372343995
 70
        32
  0
VERTEX
  5
276
100
AcDbEntity
  8
CK_LEVEL_1
  6
CONTINUOUS
 62
         1
100
AcDbVertex
100
AcDb3dPolylineVertex
 10
5724.2302734338
 20
-5841.2260667587
 30
51.5571762224
 70
        32
  0
VERTEX
  5
278
100
AcDbEntity
  8
CK_LEVEL_1
  6
CONTINUOUS
 62
         1
100
AcDbVertex
100
AcDb3dPolylineVertex
 10
5724.382708358
 20
-5841.4191470719
 30
50.9992871266
 70
        32
  0
VERTEX
  5
27A
100
AcDbEntity
  8
CK_LEVEL_1
  6
CONTINUOUS
 62
         1
100
AcDbVertex
100
AcDb3dPolylineVertex
 10
5724.5833621923
 20
-5841.6796030386
 30
50.3257902899
 70
        32
  0
VERTEX
  5
27C
100
AcDbEntity
  8
CK_LEVEL_1
  6
CONTINUOUS
 62
         1
100
AcDbVertex
100
AcDb3dPolylineVertex
 10
5724.7745719896
 20
-5841.9346539051
 30
49.7336781859
 70
        32
  0
VERTEX
  5
27E
100
AcDbEntity
  8
CK_LEVEL_1
  6
CONTINUOUS
 62
         1
100
AcDbVertex
100
AcDb3dPolylineVertex
 10
5725.0154936404
 20
-5842.2659317138
 30
49.0410500866
 70
        32
  0
VERTEX
  5
280
100
AcDbEntity
  8
CK_LEVEL_1
  6
CONTINUOUS
 62
         1
100
AcDbVertex
100
AcDb3dPolylineVertex
 10
5725.2328388317
 20
-5842.5747620146
 30
48.4569098301
 70
        32
  0
VERTEX
  5
282
100
AcDbEntity
  8
CK_LEVEL_1
  6
CONTINUOUS
 62
         1
100
AcDbVertex
100
AcDb3dPolylineVertex
 10
5725.4919552166
 20
-5842.9561197005
 30
47.8009433703
 70
        32
  0
VERTEX
  5
284
100
AcDbEntity
  8
CK_LEVEL_1
  6
CONTINUOUS
 62
         1
100
AcDbVertex
100
AcDb3dPolylineVertex
 10
5725.709938035
 20
-5843.2888450172
 30
47.277208926
 70
        32
  0
VERTEX
  5
286
100
AcDbEntity
  8
CK_LEVEL_1
  6
CONTINUOUS
 62
         1
100
AcDbVertex
100
AcDb3dPolylineVertex
 10
5725.9525026699
 20
-5843.6729724067
 30
46.7195360412
 70
        32
  0
VERTEX
  5
288
100
AcDbEntity
  8
CK_LEVEL_1
  6
CONTINUOUS
 62
         1
100
AcDbVertex
100
AcDb3dPolylineVertex
 10
5726.2015111494
 20
-5844.0839524337
 30
46.1702831854
 70
        32
  0
VERTEX
  5
28A
100
AcDbEntity
  8
CK_LEVEL_1
  6
CONTINUOUS
 62
         1
100
AcDbVertex
100
AcDb3dPolylineVertex
 10
5726.4291345121
 20
-5844.475968762
 30
45.6856318003
 70
        32
  0
VERTEX
  5
28C
100
AcDbEntity
  8
CK_LEVEL_1
  6
CONTINUOUS
 62
         1
100
AcDbVertex
100
AcDb3dPolylineVertex
 10
5726.6623788566
 20
-5844.8957502022
 30
45.2036633857
 70
        32
  0
VERTEX
  5
28E
100
AcDbEntity
  8
CK_LEVEL_1
  6
CONTINUOUS
 62
         1
100
AcDbVertex
100
AcDb3dPolylineVertex
 10
5726.7397364243
 20
-5845.0394035275
 30
45.0466912921
 70
        32
  0
VERTEX
  5
290
100
AcDbEntity
  8
CK_LEVEL_1
  6
CONTINUOUS
 62
         1
100
AcDbVertex
100
AcDb3dPolylineVertex
 10
5726.9877457472
 20
-5845.5167139011
 30
44.552119261
 70
        32
  0
VERTEX
  5
292
100
AcDbEntity
  8
CK_LEVEL_1
  6
CONTINUOUS
 62
         1
100
AcDbVertex
100
AcDb3dPolylineVertex
 10
5727.2139215629
 20
-5845.9762528737
 30
44.1119535081
 70
        32
  0
VERTEX
  5
294
100
AcDbEntity
  8
CK_LEVEL_1
  6
CONTINUOUS
 62
         1
100
AcDbVertex
100
AcDb3dPolylineVertex
 10
5727.4195184895
 20
-5846.4162727363
 30
43.7202232649
 70
        32
  0
VERTEX
  5
296
100
AcDbEntity
  8
CK_LEVEL_1
  6
CONTINUOUS
 62
         1
100
AcDbVertex
100
AcDb3dPolylineVertex
 10
5727.6671598128
 20
-5846.9781090687
 30
43.2583177413
 70
        32
  0
VERTEX
  5
298
100
AcDbEntity
  8
CK_LEVEL_1
  6
CONTINUOUS
 62
         1
100
AcDbVertex
100
AcDb3dPolylineVertex
 10
5727.8833430914
 20
-5847.5012155117
 30
42.8634398947
 70
        32
  0
VERTEX
  5
29A
100
AcDbEntity
  8
CK_LEVEL_1
  6
CONTINUOUS
 62
         1
100
AcDbVertex
100
AcDb3dPolylineVertex
 10
5728.071602477
 20
-5847.9856478991
 30
42.5255611614
 70
        32
  0
VERTEX
  5
29C
100
AcDbEntity
  8
CK_LEVEL_1
  6
CONTINUOUS
 62
         1
100
AcDbVertex
100
AcDb3dPolylineVertex
 10
5728.2885402062
 20
-5848.5834103382
 30
42.1427802335
 70
        32
  0
VERTEX
  5
29E
100
AcDbEntity
  8
CK_LEVEL_1
  6
CONTINUOUS
 62
         1
100
AcDbVertex
100
AcDb3dPolylineVertex
 10
5728.4676863445
 20
-5849.1154282792
 30
41.8317291406
 70
        32
  0
VERTEX
  5
2A0
100
AcDbEntity
  8
CK_LEVEL_1
  6
CONTINUOUS
 62
         1
100
AcDbVertex
100
AcDb3dPolylineVertex
 10
5728.6632934571
 20
-5849.7456950619
 30
41.4970423832
 70
        32
  0
VERTEX
  5
2A2
100
AcDbEntity
  8
CK_LEVEL_1
  6
CONTINUOUS
 62
         1
100
AcDbVertex
100
AcDb3dPolylineVertex
 10
5728.8140860182
 20
-5850.2758265339
 30
41.242370329
 70
        32
  0
VERTEX
  5
2A4
100
AcDbEntity
  8
CK_LEVEL_1
  6
CONTINUOUS
 62
         1
100
AcDbVertex
100
AcDb3dPolylineVertex
 10
5728.9680779436
 20
-5850.8688354178
 30
40.9850941305
 70
        32
  0
VERTEX
  5
2A6
100
AcDbEntity
  8
CK_LEVEL_1
  6
CONTINUOUS
 62
         1
100
AcDbVertex
100
AcDb3dPolylineVertex
 10
5729.1116253741
 20
-5851.4841919125
 30
40.747584017
 70
        32
  0
VERTEX
  5
2A8
100
AcDbEntity
  8
CK_LEVEL_1
  6
CONTINUOUS
 62
         1
100
AcDbVertex
100
AcDb3dPolylineVertex
 10
5729.2301581285
 20
-5852.0554107507
 30
40.5528962221
 70
        32
  0
VERTEX
  5
2AA
100
AcDbEntity
  8
CK_LEVEL_1
  6
CONTINUOUS
 62
         1
100
AcDbVertex
100
AcDb3dPolylineVertex
 10
5729.3389334738
 20
-5852.6523238038
 30
40.3750487384
 70
        32
  0
VERTEX
  5
2AC
100
AcDbEntity
  8
CK_LEVEL_1
  6
CONTINUOUS
 62
         1
100
AcDbVertex
100
AcDb3dPolylineVertex
 10
5729.3721117868
 20
-5852.8534306561
 30
40.3208790271
 70
        32
  0
VERTEX
  5
2AE
100
AcDbEntity
  8
CK_LEVEL_1
  6
CONTINUOUS
 62
         1
100
AcDbVertex
100
AcDb3dPolylineVertex
 10
5729.4622588693
 20
-5853.469934741
 30
40.1733200614
 70
        32
  0
VERTEX
  5
2B0
100
AcDbEntity
  8
CK_LEVEL_1
  6
CONTINUOUS
 62
         1
100
AcDbVertex
100
AcDb3dPolylineVertex
 10
5729.5321653208
 20
-5854.0572072957
 30
40.0582200858
 70
        32
  0
VERTEX
  5
2B2
100
AcDbEntity
  8
CK_LEVEL_1
  6
CONTINUOUS
 62
         1
100
AcDbVertex
100
AcDb3dPolylineVertex
 10
5729.5848105032
 20
-5854.6154119833
 30
39.9709400582
 70
        32
  0
VERTEX
  5
2B4
100
AcDbEntity
  8
CK_LEVEL_1
  6
CONTINUOUS
 62
         1
100
AcDbVertex
100
AcDb3dPolylineVertex
 10
5729.6227759644
 20
-5855.1450062859
 30
39.9074366681
 70
        32
  0
VERTEX
  5
2B6
100
AcDbEntity
  8
CK_LEVEL_1
  6
CONTINUOUS
 62
         1
100
AcDbVertex
100
AcDb3dPolylineVertex
 10
5729.654601567
 20
-5855.8141975401
 30
39.8533513644
 70
        32
  0
VERTEX
  5
2B8
100
AcDbEntity
  8
CK_LEVEL_1
  6
CONTINUOUS
 62
         1
100
AcDbVertex
100
AcDb3dPolylineVertex
 10
5729.6684431112
 20
-5856.4348593697
 30
39.8287304628
 70
        32
  0
VERTEX
  5
2BA
100
AcDbEntity
  8
CK_LEVEL_1
  6
CONTINUOUS
 62
         1
100
AcDbVertex
100
AcDb3dPolylineVertex
 10
5729.6680992022
 20
-5857.0094336119
 30
39.8275084906
 70
        32
  0
VERTEX
  5
2BC
100
AcDbEntity
  8
CK_LEVEL_1
  6
CONTINUOUS
 62
         1
100
AcDbVertex
100
AcDb3dPolylineVertex
 10
5729.6566887934
 20
-5857.540551619
 30
39.8446702018
 70
        32
  0
VERTEX
  5
2BE
100
AcDbEntity
  8
CK_LEVEL_1
  6
CONTINUOUS
 62
         1
100
AcDbVertex
100
AcDb3dPolylineVertex
 10
5729.6281461866
 20
-5858.1941024867
 30
39.8898464795
 70
        32
  0
VERTEX
  5
2C0
100
AcDbEntity
  8
CK_LEVEL_1
  6
CONTINUOUS
 62
         1
100
AcDbVertex
100
AcDb3dPolylineVertex
 10
5729.5889963684
 20
-5858.7799000644
 30
39.9529856241
 70
        32
  0
VERTEX
  5
2C2
100
AcDbEntity
  8
CK_LEVEL_1
  6
CONTINUOUS
 62
         1
100
AcDbVertex
100
AcDb3dPolylineVertex
 10
5729.5254605086
 20
-5859.4785301827
 30
40.0566009445
 70
        32
  0
VERTEX
  5
2C4
100
AcDbEntity
  8
CK_LEVEL_1
  6
CONTINUOUS
 62
         1
100
AcDbVertex
100
AcDb3dPolylineVertex
 10
5729.4560299469
 20
-5860.079014877
 30
40.1707411429
 70
        32
  0
VERTEX
  5
2C6
100
AcDbEntity
  8
CK_LEVEL_1
  6
CONTINUOUS
 62
         1
100
AcDbVertex
100
AcDb3dPolylineVertex
 10
5729.3594817085
 20
-5860.7657227197
 30
40.3305014898
 70
        32
  0
VERTEX
  5
2C8
100
AcDbEntity
  8
CK_LEVEL_1
  6
CONTINUOUS
 62
         1
100
AcDbVertex
100
AcDb3dPolylineVertex
 10
5729.2672222491
 20
-5861.323475207
 30
40.4840151842
 70
        32
  0
VERTEX
  5
2CA
100
AcDbEntity
  8
CK_LEVEL_1
  6
CONTINUOUS
 62
         1
100
AcDbVertex
100
AcDb3dPolylineVertex
 10
5729.1529661646
 20
-5861.9266889827
 30
40.6750539491
 70
        32
  0
VERTEX
  5
2CC
100
AcDbEntity
  8
CK_LEVEL_1
  6
CONTINUOUS
 62
         1
100
AcDbVertex
100
AcDb3dPolylineVertex
 10
5729.0229229882
 20
-5862.5302657343
 30
40.893540961
 70
        32
  0
VERTEX
  5
2CE
100
AcDbEntity
  8
CK_LEVEL_1
  6
CONTINUOUS
 62
         1
100
AcDbVertex
100
AcDb3dPolylineVertex
 10
5728.8924341998
 20
-5863.0707251512
 30
41.1137581037
 70
        32
  0
VERTEX
  5
2D0
100
AcDbEntity
  8
CK_LEVEL_1
  6
CONTINUOUS
 62
         1
100
AcDbVertex
100
AcDb3dPolylineVertex
 10
5728.7466395212
 20
-5863.6155793402
 30
41.3608458966
 70
        32
  0
VERTEX
  5
2D2
100
AcDbEntity
  8
CK_LEVEL_1
  6
CONTINUOUS
 62
         1
100
AcDbVertex
100
AcDb3dPolylineVertex
 10
5728.6954448218
 20
-5863.7946342271
 30
41.4478509583
 70
        32
  0
VERTEX
  5
2D4
100
AcDbEntity
  8
CK_LEVEL_1
  6
CONTINUOUS
 62
         1
100
AcDbVertex
100
AcDb3dPolylineVertex
 10
5728.5462216713
 20
-5864.2883877286
 30
41.7024587491
 70
        32
  0
VERTEX
  5
2D6
100
AcDbEntity
  8
CK_LEVEL_1
  6
CONTINUOUS
 62
         1
100
AcDbVertex
100
AcDb3dPolylineVertex
 10
5728.3471418318
 20
-5864.8947742698
 30
42.045306014
 70
        32
  0
VERTEX
  5
2D8
100
AcDbEntity
  8
CK_LEVEL_1
  6
CONTINUOUS
 62
         1
100
AcDbVertex
100
AcDb3dPolylineVertex
 10
5728.1528950867
 20
-5865.4405065773
 30
42.3841516762
 70
        32
  0
VERTEX
  5
2DA
100
AcDbEntity
  8
CK_LEVEL_1
  6
CONTINUOUS
 62
         1
100
AcDbVertex
100
AcDb3dPolylineVertex
 10
5727.9655552482
 20
-5865.932005611
 30
42.7156586617
 70
        32
  0
VERTEX
  5
2DC
100
AcDbEntity
  8
CK_LEVEL_1
  6
CONTINUOUS
 62
         1
100
AcDbVertex
100
AcDb3dPolylineVertex
 10
5727.725678947
 20
-5866.5201582608
 30
43.147768008
 70
        32
  0
VERTEX
  5
2DE
100
AcDbEntity
  8
CK_LEVEL_1
  6
CONTINUOUS
 62
         1
100
AcDbVertex
100
AcDb3dPolylineVertex
 10
5727.5027193458
 20
-5867.0320496234
 30
43.5579678812
 70
        32
  0
VERTEX
  5
2E0
100
AcDbEntity
  8
CK_LEVEL_1
  6
CONTINUOUS
 62
         1
100
AcDbVertex
100
AcDb3dPolylineVertex
 10
5727.2973469312
 20
-5867.4782881389
 30
43.9438756255
 70
        32
  0
VERTEX
  5
2E2
100
AcDbEntity
  8
CK_LEVEL_1
  6
CONTINUOUS
 62
         1
100
AcDbVertex
100
AcDb3dPolylineVertex
 10
5727.0462669984
 20
-5867.9952862168
 30
44.4272405669
 70
        32
  0
VERTEX
  5
2E4
100
AcDbEntity
  8
CK_LEVEL_1
  6
CONTINUOUS
 62
         1
100
AcDbVertex
100
AcDb3dPolylineVertex
 10
5726.825670568
 20
-5868.4266689009
 30
44.8634713971
 70
        32
  0
VERTEX
  5
2E6
100
AcDbEntity
  8
CK_LEVEL_1
  6
CONTINUOUS
 62
         1
100
AcDbVertex
100
AcDb3dPolylineVertex
 10
5726.5686280742
 20
-5868.9054380397
 30
45.3868980846
 70
        32
  0
VERTEX
  5
2E8
100
AcDbEntity
  8
CK_LEVEL_1
  6
CONTINUOUS
 62
         1
100
AcDbVertex
100
AcDb3dPolylineVertex
 10
5726.2859159084
 20
-5869.4054541771
 30
45.9836499841
 70
        32
  0
VERTEX
  5
2EA
100
AcDbEntity
  8
CK_LEVEL_1
  6
CONTINUOUS
 62
         1
100
AcDbVertex
100
AcDb3dPolylineVertex
 10
5726.0707773436
 20
-5869.7690444152
 30
46.4544033265
 70
        32
  0
VERTEX
  5
2EC
100
AcDbEntity
  8
CK_LEVEL_1
  6
CONTINUOUS
 62
         1
100
AcDbVertex
100
AcDb3dPolylineVertex
 10
5725.8534192294
 20
-5870.122694322
 30
46.9464776353
 70
        32
  0
VERTEX
  5
2EE
100
AcDbEntity
  8
CK_LEVEL_1
  6
CONTINUOUS
 62
         1
100
AcDbVertex
100
AcDb3dPolylineVertex
 10
5725.592515147
 20
-5870.5301994283
 30
47.561940436
 70
        32
  0
VERTEX
  5
2F0
100
AcDbEntity
  8
CK_LEVEL_1
  6
CONTINUOUS
 62
         1
100
AcDbVertex
100
AcDb3dPolylineVertex
 10
5725.3930386572
 20
-5870.8299262819
 30
48.0533735756
 70
        32
  0
VERTEX
  5
2F2
100
AcDbEntity
  8
CK_LEVEL_1
  6
CONTINUOUS
 62
         1
100
AcDbVertex
100
AcDb3dPolylineVertex
 10
5725.1453561858
 20
-5871.1890137503
 30
48.6947654692
 70
        32
  0
VERTEX
  5
2F4
100
AcDbEntity
  8
CK_LEVEL_1
  6
CONTINUOUS
 62
         1
100
AcDbVertex
100
AcDb3dPolylineVertex
 10
5724.9369807386
 20
-5871.4810144106
 30
49.2676476761
 70
        32
  0
VERTEX
  5
2F6
100
AcDbEntity
  8
CK_LEVEL_1
  6
CONTINUOUS
 62
         1
100
AcDbVertex
100
AcDb3dPolylineVertex
 10
5724.7056866031
 20
-5871.7951461433
 30
49.947853506
 70
        32
  0
VERTEX
  5
2F8
100
AcDbEntity
  8
CK_LEVEL_1
  6
CONTINUOUS
 62
         1
100
AcDbVertex
100
AcDb3dPolylineVertex
 10
5724.5248299068
 20
-5872.0338965435
 30
50.5206148818
 70
        32
  0
VERTEX
  5
2FA
100
AcDbEntity
  8
CK_LEVEL_1
  6
CONTINUOUS
 62
         1
100
AcDbVertex
100
AcDb3dPolylineVertex
 10
5724.3379824999
 20
-5872.2745299211
 30
51.1613434003
 70
        32
  0
VERTEX
  5
2FC
100
AcDbEntity
  8
CK_LEVEL_1
  6
CONTINUOUS
 62
         1
100
AcDbVertex
100
AcDb3dPolylineVertex
 10
5724.1620105397
 20
-5872.4957710414
 30
51.8256297968
 70
        32
  0
VERTEX
  5
2FE
100
AcDbEntity
  8
CK_LEVEL_1
  6
CONTINUOUS
 62
         1
100
AcDbVertex
100
AcDb3dPolylineVertex
 10
5724.0155720613
 20
-5872.6760200763
 30
52.4412120683
 70
        32
  0
VERTEX
  5
300
100
AcDbEntity
  8
CK_LEVEL_1
  6
CONTINUOUS
 62
         1
100
AcDbVertex
100
AcDb3dPolylineVertex
 10
5723.8805169303
 20
-5872.8392330917
 30
53.0829135378
 70
        32
  0
VERTEX
  5
302
100
AcDbEntity
  8
CK_LEVEL_1
  6
CONTINUOUS
 62
         1
100
AcDbVertex
100
AcDb3dPolylineVertex
 10
5723.8392500297
 20
-5872.8885398178
 30
53.2986698036
 70
        32
  0
VERTEX
  5
304
100
AcDbEntity
  8
CK_LEVEL_1
  6
CONTINUOUS
 62
         1
100
AcDbVertex
100
AcDb3dPolylineVertex
 10
5723.7408808445
 20
-5873.0053850159
 30
53.8689030215
 70
        32
  0
VERTEX
  5
306
100
AcDbEntity
  8
CK_LEVEL_1
  6
CONTINUOUS
 62
         1
100
AcDbVertex
100
AcDb3dPolylineVertex
 10
5723.6419777544
 20
-5873.1219894585
 30
54.5626879366
 70
        32
  0
VERTEX
  5
308
100
AcDbEntity
  8
CK_LEVEL_1
  6
CONTINUOUS
 62
         1
100
AcDbVertex
100
AcDb3dPolylineVertex
 10
5723.5735394255
 20
-5873.202015969
 30
55.1706630696
 70
        32
  0
VERTEX
  5
30A
100
AcDbEntity
  8
CK_LEVEL_1
  6
CONTINUOUS
 62
         1
100
AcDbVertex
100
AcDb3dPolylineVertex
 10
5723.5149064353
 20
-5873.2699355039
 30
55.8789106456
 70
        32
  0
VERTEX
  5
30C
100
AcDbEntity
  8
CK_LEVEL_1
  6
CONTINUOUS
 62
         1
100
AcDbVertex
100
AcDb3dPolylineVertex
 10
5723.4834792892
 20
-5873.3058791944
 30
56.4642418456
 70
        32
  0
VERTEX
  5
30E
100
AcDbEntity
  8
CK_LEVEL_1
  6
CONTINUOUS
 62
         1
100
AcDbVertex
100
AcDb3dPolylineVertex
 10
5723.4667962947
 20
-5873.324466472
 30
57.1074188497
 70
        32
  0
VERTEX
  5
310
100
AcDbEntity
  8
CK_LEVEL_1
  6
CONTINUOUS
 62
         1
100
AcDbVertex
100
AcDb3dPolylineVertex
 10
5723.4692763933
 20
-5873.3208481677
 30
57.7615616134
 70
        32
  0
VERTEX
  5
312
100
AcDbEntity
  8
CK_LEVEL_1
  6
CONTINUOUS
 62
         1
100
AcDbVertex
100
AcDb3dPolylineVertex
 10
5723.4889671744
 20
-5873.2975886863
 30
58.3563738885
 70
        32
  0
VERTEX
  5
314
100
AcDbEntity
  8
CK_LEVEL_1
  6
CONTINUOUS
 62
         1
100
AcDbVertex
100
AcDb3dPolylineVertex
 10
5723.5268680888
 20
-5873.2536702576
 30
58.9648581016
 70
        32
  0
VERTEX
  5
316
100
AcDbEntity
  8
CK_LEVEL_1
  6
CONTINUOUS
 62
         1
100
AcDbVertex
100
AcDb3dPolylineVertex
 10
5723.5435389558
 20
-5873.2344925875
 30
59.1667966321
 70
        32
  0
VERTEX
  5
318
100
AcDbEntity
  8
CK_LEVEL_1
  6
CONTINUOUS
 62
         1
100
AcDbVertex
100
AcDb3dPolylineVertex
 10
5723.6043636072
 20
-5873.1645662838
 30
59.7622645192
 70
        32
  0
VERTEX
  5
31A
100
AcDbEntity
  8
CK_LEVEL_1
  6
CONTINUOUS
 62
         1
100
AcDbVertex
100
AcDb3dPolylineVertex
 10
5723.6749979385
 20
-5873.082854395
 30
60.3085807275
 70
        32
  0
VERTEX
  5
31C
100
AcDbEntity
  8
CK_LEVEL_1
  6
CONTINUOUS
 62
         1
100
AcDbVertex
100
AcDb3dPolylineVertex
 10
5723.7799219106
 20
-5872.9600710376
 30
60.9756851667
 70
        32
  0
VERTEX
  5
31E
100
AcDbEntity
  8
CK_LEVEL_1
  6
CONTINUOUS
 62
         1
100
AcDbVertex
100
AcDb3dPolylineVertex
 10
5723.890011374
 20
-5872.8292996518
 30
61.5690389837
 70
        32
  0
VERTEX
  5
320
100
AcDbEntity
  8
CK_LEVEL_1
  6
CONTINUOUS
 62
         1
100
AcDbVertex
100
AcDb3dPolylineVertex
 10
5724.0401109574
 20
-5872.6477320057
 30
62.2712894916
 70
        32
  0
VERTEX
  5
322
100
AcDbEntity
  8
CK_LEVEL_1
  6
CONTINUOUS
 62
         1
100
AcDbVertex
100
AcDb3dPolylineVertex
 10
5724.1846961331
 20
-5872.4692432894
 30
62.8704140137
 70
        32
  0
VERTEX
  5
324
100
AcDbEntity
  8
CK_LEVEL_1
  6
CONTINUOUS
 62
         1
100
AcDbVertex
100
AcDb3dPolylineVertex
 10
5724.3668549374
 20
-5872.2393003945
 30
63.5507280161
 70
        32
  0
VERTEX
  5
326
100
AcDbEntity
  8
CK_LEVEL_1
  6
CONTINUOUS
 62
         1
100
AcDbVertex
100
AcDb3dPolylineVertex
 10
5724.5274632166
 20
-5872.0317877211
 30
64.0996368236
 70
        32
  0
VERTEX
  5
328
100
AcDbEntity
  8
CK_LEVEL_1
  6
CONTINUOUS
 62
         1
100
AcDbVertex
100
AcDb3dPolylineVertex
 10
5724.7134347617
 20
-5871.7857597434
 30
64.6897371255
 70
        32
  0
VERTEX
  5
32A
100
AcDbEntity
  8
CK_LEVEL_1
  6
CONTINUOUS
 62
         1
100
AcDbVertex
100
AcDb3dPolylineVertex
 10
5724.911837221
 20
-5871.5162347323
 30
65.2766196454
 70
        32
  0
VERTEX
  5
32C
100
AcDbEntity
  8
CK_LEVEL_1
  6
CONTINUOUS
 62
         1
100
AcDbVertex
100
AcDb3dPolylineVertex
 10
5725.099610518
 20
-5871.2541247606
 30
65.7991860422
 70
        32
  0
VERTEX
  5
32E
100
AcDbEntity
  8
CK_LEVEL_1
  6
CONTINUOUS
 62
         1
100
AcDbVertex
100
AcDb3dPolylineVertex
 10
5725.2983047507
 20
-5870.9689080943
 30
66.3232573219
 70
        32
  0
VERTEX
  5
330
100
AcDbEntity
  8
CK_LEVEL_1
  6
CONTINUOUS
 62
         1
100
AcDbVertex
100
AcDb3dPolylineVertex
 10
5725.3656180416
 20
-5870.8703598674
 30
66.4948912363
 70
        32
  0
VERTEX
  5
332
100
AcDbEntity
  8
CK_LEVEL_1
  6
CONTINUOUS
 62
         1
100
AcDbVertex
100
AcDb3dPolylineVertex
 10
5725.5736478412
 20
-5870.5591700073
 30
67.0095158857
 70
        32
  0
VERTEX
  5
334
100
AcDbEntity
  8
CK_LEVEL_1
  6
CONTINUOUS
 62
         1
100
AcDbVertex
100
AcDb3dPolylineVertex
 10
5725.7850953435
 20
-5870.232057816
 30
67.511158517
 70
        32
  0
VERTEX
  5
336
100
AcDbEntity
  8
CK_LEVEL_1
  6
CONTINUOUS
 62
         1
100
AcDbVertex
100
AcDb3dPolylineVertex
 10
5725.9990271087
 20
-5869.8892966125
 30
67.9995288927
 70
        32
  0
VERTEX
  5
338
100
AcDbEntity
  8
CK_LEVEL_1
  6
CONTINUOUS
 62
         1
100
AcDbVertex
100
AcDb3dPolylineVertex
 10
5726.2145096968
 20
-5869.5311597156
 30
68.4743367755
 70
        32
  0
VERTEX
  5
33A
100
AcDbEntity
  8
CK_LEVEL_1
  6
CONTINUOUS
 62
         1
100
AcDbVertex
100
AcDb3dPolylineVertex
 10
5726.4306096679
 20
-5869.1579204443
 30
68.9352919279
 70
        32
  0
VERTEX
  5
33C
100
AcDbEntity
  8
CK_LEVEL_1
  6
CONTINUOUS
 62
         1
100
AcDbVertex
100
AcDb3dPolylineVertex
 10
5726.6463935818
 20
-5868.7698521175
 30
69.3821041125
 70
        32
  0
VERTEX
  5
33E
100
AcDbEntity
  8
CK_LEVEL_1
  6
CONTINUOUS
 62
         1
100
AcDbVertex
100
AcDb3dPolylineVertex
 10
5726.8609279988
 20
-5868.367228054
 30
69.8144830919
 70
        32
  0
VERTEX
  5
340
100
AcDbEntity
  8
CK_LEVEL_1
  6
CONTINUOUS
 62
         1
100
AcDbVertex
100
AcDb3dPolylineVertex
 10
5727.0732794788
 20
-5867.9503215728
 30
70.2321386287
 70
        32
  0
VERTEX
  5
342
100
AcDbEntity
  8
CK_LEVEL_1
  6
CONTINUOUS
 62
         1
100
AcDbVertex
100
AcDb3dPolylineVertex
 10
5727.2825145818
 20
-5867.5194059927
 30
70.6347804855
 70
        32
  0
SEQEND
  5
344
100
AcDbEntity
  8
CK_LEVEL_1
  6
CONTINUOUS
 62
         1
  0
ENDBLK
  5
345
100
AcDbEntity
  8
0
  6
CONTINUOUS
100
AcDbBlockEnd
  0
BLOCK
  5
349
100
AcDbEntity
  8
0
100
AcDbBlockBegin
  2
CKCOLL190917
 70
        64
 10
0.0
 20
0.0
 30
0.0
  3
CKCOLL190917
  1

  0
CIRCLE
  5
34A
100
AcDbEntity
  8
CK_LEVEL_1
  6
CONTINUOUS
 62
         1
100
AcDbCircle
 10
5704.6885310423
 20
-5856.8183823118
 30
0.0
 40
18.5
  0
CIRCLE
  5
34B
100
AcDbEntity
  8
CK_LEVEL_1
  6
CONTINUOUS
 62
         1
100
AcDbCircle
 10
5704.6885310423
 20
-5856.8183823118
 30
97.6351287576
 40
19.5
  0
CIRCLE
  5
34C
100
AcDbEntity
  8
CK_LEVEL_1
  6
CONTINUOUS
 62
         1
100
AcDbCircle
 10
5704.6885310423
 20
-5856.8183823118
 30
97.6351287576
 40
18.5
  0
LINE
  5
34D
100
AcDbEntity
  8
CK_LEVEL_1
  6
CONTINUOUS
 62
         1
100
AcDbLine
 10
5704.6885310423
 20
-5837.3183823118
 30
0.0
 11
5704.6885310423
 21
-5837.3183823118
 31
97.6351287576
  0
LINE
  5
34E
100
AcDbEntity
  8
CK_LEVEL_1
  6
CONTINUOUS
 62
         1
100
AcDbLine
 10
5685.1885310423
 20
-5856.8183823118
 30
0.0
 11
5685.1885310423
 21
-5856.8183823118
 31
97.6351287576
  0
LINE
  5
34F
100
AcDbEntity
  8
CK_LEVEL_1
  6
CONTINUOUS
 62
         1
100
AcDbLine
 10
5704.6885310423
 20
-5876.3183823118
 30
0.0
 11
5704.6885310423
 21
-5876.3183823118
 31
97.6351287576
  0
LINE
  5
350
100
AcDbEntity
  8
CK_LEVEL_1
  6
CONTINUOUS
 62
         1
100
AcDbLine
 10
5724.1885310423
 20
-5856.8183823118
 30
0.0
 11
5724.1885310423
 21
-5856.8183823118
 31
97.6351287576
  0
LINE
  5
351
100
AcDbEntity
  8
CK_LEVEL_1
  6
CONTINUOUS
 62
         1
100
AcDbLine
 10
5704.6885310423
 20
-5838.3183823118
 30
0.0
 11
5704.6885310423
 21
-5838.3183823118
 31
97.6351287576
  0
LINE
  5
352
100
AcDbEntity
  8
CK_LEVEL_1
  6
CONTINUOUS
 62
         1
100
AcDbLine
 10
5686.1885310423
 20
-5856.8183823118
 30
0.0
 11
5686.1885310423
 21
-5856.8183823118
 31
97.6351287576
  0
LINE
  5
353
100
AcDbEntity
  8
CK_LEVEL_1
  6
CONTINUOUS
 62
         1
100
AcDbLine
 10
5704.6885310423
 20
-5875.3183823118
 30
0.0
 11
5704.6885310423
 21
-5875.3183823118
 31
97.6351287576
  0
LINE
  5
354
100
AcDbEntity
  8
CK_LEVEL_1
  6
CONTINUOUS
 62
         1
100
AcDbLine
 10
5723.1885310423
 20
-5856.8183823118
 30
0.0
 11
5723.1885310423
 21
-5856.8183823118
 31
97.6351287576
  0
CIRCLE
  5
355
100
AcDbEntity
  8
CK_LEVEL_1
  6
CONTINUOUS
 62
         1
100
AcDbCircle
 10
5704.6885310423
 20
-5856.8183823118
 30
0.0
 40
19.5
  0
ENDBLK
  5
356
100
AcDbEntity
  8
0
  6
CONTINUOUS
100
AcDbBlockEnd
  0
BLOCK
  5
35A
100
AcDbEntity
  8
0
100
AcDbBlockBegin
  2
CKCOLL190952
 70
        64
 10
0.0
 20
0.0
 30
0.0
  3
CKCOLL190952
  1

  0
CIRCLE
  5
35B
100
AcDbEntity
  8
CK_LEVEL_1
  6
CONTINUOUS
 62
         1
100
AcDbCircle
 10
-5856.8183823118
 20
57.3087000275
 30
5986.6885310423
 40
15.0
210
1.0
220
0.0
230
0.0
  0
LINE
  5
35C
100
AcDbEntity
  8
CK_LEVEL_1
  6
CONTINUOUS
 62
         1
100
AcDbLine
 10
5753.6885310423
 20
-5840.8183823118
 30
57.3087000275
 11
5986.6885310423
 21
-5840.8183823118
 31
57.3087000275
  0
LINE
  5
35D
100
AcDbEntity
  8
CK_LEVEL_1
  6
CONTINUOUS
 62
         1
100
AcDbLine
 10
5753.6885310423
 20
-5856.8183823118
 30
73.3087000275
 11
5986.6885310423
 21
-5856.8183823118
 31
73.3087000275
  0
LINE
  5
35E
100
AcDbEntity
  8
CK_LEVEL_1
  6
CONTINUOUS
 62
         1
100
AcDbLine
 10
5753.6885310423
 20
-5872.8183823118
 30
57.3087000275
 11
5986.6885310423
 21
-5872.8183823118
 31
57.3087000275
  0
LINE
  5
35F
100
AcDbEntity
  8
CK_LEVEL_1
  6
CONTINUOUS
 62
         1
100
AcDbLine
 10
5753.6885310423
 20
-5856.8183823118
 30
41.3087000275
 11
5986.6885310423
 21
-5856.8183823118
 31
41.3087000275
  0
LINE
  5
360
100
AcDbEntity
  8
CK_LEVEL_1
  6
CONTINUOUS
 62
         1
100
AcDbLine
 10
5753.6885310423
 20
-5841.8183823118
 30
57.3087000275
 11
5986.6885310423
 21
-5841.8183823118
 31
57.3087000275
  0
LINE
  5
361
100
AcDbEntity
  8
CK_LEVEL_1
  6
CONTINUOUS
 62
         1
100
AcDbLine
 10
5753.6885310423
 20
-5856.8183823118
 30
72.3087000275
 11
5986.6885310423
 21
-5856.8183823118
 31
72.3087000275
  0
LINE
  5
362
100
AcDbEntity
  8
CK_LEVEL_1
  6
CONTINUOUS
 62
         1
100
AcDbLine
 10
5753.6885310423
 20
-5871.8183823118
 30
57.3087000275
 11
5986.6885310423
 21
-5871.8183823118
 31
57.3087000275
  0
LINE
  5
363
100
AcDbEntity
  8
CK_LEVEL_1
  6
CONTINUOUS
 62
         1
100
AcDbLine
 10
5753.6885310423
 20
-5856.8183823118
 30
42.3087000275
 11
5986.6885310423
 21
-5856.8183823118
 31
42.3087000275
  0
CIRCLE
  5
364
100
AcDbEntity
  8
CK_LEVEL_1
  6
CONTINUOUS
 62
         1
100
AcDbCircle
 10
-5856.8183823118
 20
57.3087000275
 30
5753.6885310423
 40
16.0
210
1.0
220
0.0
230
0.0
  0
CIRCLE
  5
365
100
AcDbEntity
  8
CK_LEVEL_1
  6
CONTINUOUS
 62
         1
100
AcDbCircle
 10
-5856.8183823118
 20
57.3087000275
 30
5753.6885310423
 40
15.0
210
1.0
220
0.0
230
0.0
  0
CIRCLE
  5
366
100
AcDbEntity
  8
CK_LEVEL_1
  6
CONTINUOUS
 62
         1
100
AcDbCircle
 10
-5856.8183823118
 20
57.3087000275
 30
5986.6885310423
 40
16.0
210
1.0
220
0.0
230
0.0
  0
ENDBLK
  5
367
100
AcDbEntity
  8
0
  6
CONTINUOUS
100
AcDbBlockEnd
  0
BLOCK
  5
36B
100
AcDbEntity
  8
0
100
AcDbBlockBegin
  2
CKCOLL190966
 70
        64
 10
0.0
 20
0.0
 30
0.0
  3
CKCOLL190966
  1

  0
CIRCLE
  5
36C
100
AcDbEntity
  8
CK_LEVEL_1
  6
CONTINUOUS
 62
         1
100
AcDbCircle
 10
-5856.8183823118
 20
57.3087000275
 30
5885.6486747491
 40
35.0
210
1.0
220
0.0
230
0.0
  0
CIRCLE
  5
36D
100
AcDbEntity
  8
CK_LEVEL_1
  6
CONTINUOUS
 62
         1
100
AcDbCircle
 10
-5856.8183823118
 20
57.3087000275
 30
5875.1486747491
 40
33.5
210
1.0
220
0.0
230
0.0
  0
CIRCLE
  5
36E
100
AcDbEntity
  8
CK_LEVEL_1
  6
CONTINUOUS
 62
         1
100
AcDbCircle
 10
-5856.8183823118
 20
57.3087000275
 30
5885.6486747491
 40
33.5
210
1.0
220
0.0
230
0.0
  0
ARC
  5
36F
100
AcDbEntity
  8
CK_LEVEL_1
  6
CONTINUOUS
 62
         1
100
AcDbCircle
 10
-5874.1486747491
 20
22.8087000275
 30
-5856.8183823118
 40
0.5
210
0.0
220
1.0
230
0.0
100
AcDbArc
 50
270.0
 51
360.0
  0
ARC
  5
370
100
AcDbEntity
  8
CK_LEVEL_1
  6
CONTINUOUS
 62
         1
100
AcDbCircle
 10
5874.1486747491
 20
-5822.3183823118
 30
57.3087000275
 40
0.5
100
AcDbArc
 50
90.0
 51
180.0
  0
ARC
  5
371
100
AcDbEntity
  8
CK_LEVEL_1
  6
CONTINUOUS
 62
         1
100
AcDbCircle
 10
5874.1486747491
 20
91.8087000275
 30
5856.8183823118
 40
0.5
210
0.0
220
-1.0
230
0.0
100
AcDbArc
 50
90.0
 51
180.0
  0
ARC
  5
372
100
AcDbEntity
  8
CK_LEVEL_1
  6
CONTINUOUS
 62
         1
100
AcDbCircle
 10
-5874.1486747491
 20
-5891.3183823118
 30
-57.3087000275
 40
0.5
210
0.0
220
0.0
230
-1.0
100
AcDbArc
 50
270.0
 51
360.0
  0
CIRCLE
  5
373
100
AcDbEntity
  8
CK_LEVEL_1
  6
CONTINUOUS
 62
         1
100
AcDbCircle
 10
-5856.8183823118
 20
57.3087000275
 30
5873.7951213585
 40
34.8535533906
210
1.0
220
0.0
230
0.0
  0
LINE
  5
374
100
AcDbEntity
  8
CK_LEVEL_1
  6
CONTINUOUS
 62
         1
100
AcDbLine
 10
5885.6486747491
 20
-5821.8183823118
 30
57.3087000275
 11
5874.1486747491
 21
-5821.8183823118
 31
57.3087000275
  0
LINE
  5
375
100
AcDbEntity
  8
CK_LEVEL_1
  6
CONTINUOUS
 62
         1
100
AcDbLine
 10
5885.6486747491
 20
-5856.8183823118
 30
92.3087000275
 11
5874.1486747491
 21
-5856.8183823118
 31
92.3087000275
  0
LINE
  5
376
100
AcDbEntity
  8
CK_LEVEL_1
  6
CONTINUOUS
 62
         1
100
AcDbLine
 10
5885.6486747491
 20
-5891.8183823118
 30
57.3087000275
 11
5874.1486747491
 21
-5891.8183823118
 31
57.3087000275
  0
LINE
  5
377
100
AcDbEntity
  8
CK_LEVEL_1
  6
CONTINUOUS
 62
         1
100
AcDbLine
 10
5885.6486747491
 20
-5856.8183823118
 30
22.3087000275
 11
5874.1486747491
 21
-5856.8183823118
 31
22.3087000275
  0
LINE
  5
378
100
AcDbEntity
  8
CK_LEVEL_1
  6
CONTINUOUS
 62
         1
100
AcDbLine
 10
5885.6486747491
 20
-5823.3183823118
 30
57.3087000275
 11
5875.1486747491
 21
-5823.3183823118
 31
57.3087000275
  0
LINE
  5
379
100
AcDbEntity
  8
CK_LEVEL_1
  6
CONTINUOUS
 62
         1
100
AcDbLine
 10
5885.6486747491
 20
-5856.8183823118
 30
90.8087000275
 11
5875.1486747491
 21
-5856.8183823118
 31
90.8087000275
  0
LINE
  5
37A
100
AcDbEntity
  8
CK_LEVEL_1
  6
CONTINUOUS
 62
         1
100
AcDbLine
 10
5885.6486747491
 20
-5890.3183823118
 30
57.3087000275
 11
5875.1486747491
 21
-5890.3183823118
 31
57.3087000275
  0
LINE
  5
37B
100
AcDbEntity
  8
CK_LEVEL_1
  6
CONTINUOUS
 62
         1
100
AcDbLine
 10
5885.6486747491
 20
-5856.8183823118
 30
23.8087000275
 11
5875.1486747491
 21
-5856.8183823118
 31
23.8087000275
  0
CIRCLE
  5
37C
100
AcDbEntity
  8
CK_LEVEL_1
  6
CONTINUOUS
 62
         1
100
AcDbCircle
 10
-5856.8183823118
 20
57.3087000275
 30
5874.1486747491
 40
35.0
210
1.0
220
0.0
230
0.0
  0
CIRCLE
  5
37D
100
AcDbEntity
  8
CK_LEVEL_1
  6
CONTINUOUS
 62
         1
100
AcDbCircle
 10
5856.8183823118
 20
57.3087000275
 30
-5873.6486747491
 40
34.5
210
-1.0
220
0.0
230
0.0
  0
ENDBLK
  5
37E
100
AcDbEntity
  8
0
  6
CONTINUOUS
100
AcDbBlockEnd
  0
ENDSEC
  0
SECTION
  2
ENTITIES
  0
INSERT
  5
4D
100
AcDbEntity
  8
0
  6
CONTINUOUS
100
AcDbBlockReference
  2
CKCOLL190875
 10
0.0
 20
0.0
 30
0.0
  0
INSERT
  5
347
100
AcDbEntity
  8
0
  6
CONTINUOUS
100
AcDbBlockReference
  2
CKCOLL190905
 10
0.0
 20
0.0
 30
0.0
  0
INSERT
  5
358
100
AcDbEntity
  8
0
  6
CONTINUOUS
100
AcDbBlockReference
  2
CKCOLL190917
 10
0.0
 20
0.0
 30
0.0
  0
INSERT
  5
369
100
AcDbEntity
  8
0
  6
CONTINUOUS
100
AcDbBlockReference
  2
CKCOLL190952
 10
0.0
 20
0.0
 30
0.0
  0
INSERT
  5
380
100
AcDbEntity
  8
0
  6
CONTINUOUS
100
AcDbBlockReference
  2
CKCOLL190966
 10
0.0
 20
0.0
 30
0.0
  0
ENDSEC
  0
SECTION
  2
OBJECTS
  0
DICTIONARY
  5
19
100
AcDbDictionary
  3
ACAD_GROUP
350
1A
  3
ACAD_MLINESTYLE
350
1B
  0
DICTIONARY
  5
1A
102
{ACAD_REACTORS
330
19
102
}
100
AcDbDictionary
  0
DICTIONARY
  5
1B
102
{ACAD_REACTORS
330
19
102
}
100
AcDbDictionary
  3
STANDARD
350
1C
  0
MLINESTYLE
  5
1C
102
{ACAD_REACTORS
330
1B
102
}
100
AcDbMlineStyle
  2
STANDARD
 70
         0
  3

 62
         0
 51
90.0
 52
90.0
 71
         2
 49
0.5
 62
       256
  6
BYLAYER
 49
-0.5
 62
       256
  6
BYLAYER
  0
ENDSEC
  0
EOF
